Gone For Good Tab

More The Shins Tabs

Artist: The Shins
 Album: Chutes Too Narrow
  Song: Gone For Good

Tabbed by: justin@indieguitartabs.com

Intro: C

C
Untie me, I've said no vows
The train is getting way too loud
        F
I gotta leave here my girl
               C
Get on with my lonely life
               G
Just leave the ring on the rail
                       C
For the wheels to nullify

C
Until this turn in my head
let you stay and you paid no rent
        F                         C
I spent twelve long months on the lam
              G
That's enough sitting on the fence
                         C
For the fear of breaking dams

Chorus:
Am       C
I find a fatal flaw
       F
In the logic of love
       C         G
And go out of my head
Am         C
You love a sinking stone
        F
That'll never elope
       C           G
So get used to the lonesome
      C         G
Girl, you must atone some
      C           G            F                        C
Don't leave me no phone number there...heeey, la-de-da

(verse chords over solo)
(solo tabbed by Peter Graham)

e|---12--------10--------8---------------------------------------|
b|------13--------12-------10-----12\13--------------------------|
G|---------12--------12-------10---------12\14--12--10--9--10----|
D|---------------------------------------------------------------|
A|---------------------------------------------------------------|
E|---------------------------------------------------------------|

e|-----------------------------------7-8-----------8------8------|
b|---------------------------------8-----6-----------8------8----|
G|--10\12------------------------9---------------------10-----10-|
D|-------------10-10-12-12\14------------------------------------|
A|---------------------------------------------------------------|
E|---------------------------------------------------------------|

e|--8--------8----8----8----8---------------------------7--------|
b|----8------8^10-8----8^10-8----8^10-8-8--8^10-8----8-----8-----|
G|------10----------------------------------------------------7--|
D|---------------------------------------------------------------|
A|---------------------------------------------------------------|
E|---------------------------------------------------------------|

e|---------------------------------------------------------------|
b|---------------------------------------------------------------|
G|--5--4-----------------------------------0-2-5-7-5-7\9~--------|
D|--------5-------------------------0-0^2------------------------|
A|-----------5----3-2--2^3~--------------------------------------|
E|---------------------------------------------------------------|

Verse:
C
It took me all of a year
To put the poison pill to your ear
          F                              C
But now I stand on honest ground, on honest ground
            G
You want to fight for this love
              F
But honey you cannot wrestle a dove
             C
So baby it's clear

chorus:
Am          C
You want to jump and dance
        F
But you sat on your hands
         C         G
And lost your only chance
Am         C
Go back to your hometown
         F
Get your feet on the ground
         C         G
And stop floating around
Am        C
I found a fatal flaw
       F
In the logic of love
         C         G
And went out of my head
Am         C
You love a sinking stone
        F
That'll never elope
       C           G
So get used to the lonesome
      C         G
Girl, you must atone some
      C           G            F                        C
Don't leave me no phone number there...heeey, la-de-da

#----------------------------PLEASE NOTE-----------------------------#
# This represents the author's own work and interpretation of the    #
# song. To be used only for private study, scholarship, or research. #
#--------------------------------------------------------------------#

blog comments powered by Disqus