Girl Inform Me Tab

More The Shins Tabs

Artist: The Shins
 Album: Oh, Inverted World
  Song: Girl Inform Me

Tabbed by: Natty - yttan11@hotmail.com


A      E       D             A       F#m          C#m        G         D
Girl inform me all my senses warn me, your clever eyes could easily disguise 
     A         E             D                 A
Some backwards purpose, it's enough to make me nervous
   F#m        C#m       D          E
Do you harbor sighs, or spit in my eye 

         C                          A                      C                 A 
But your lips when we speak are the valleys and peaks of a mountain range on fire
C            Em                        D
   So let me walk these coals till you believe 
  A           D            A
I can cut the mustard well enough 
           F#m                              E    D
‘Cause you know as soon as breathe we scrutinize 

Unknown quotients, you must be using potions 
How else could you tie my head to the sky 
This new convection has left me wondering why 
I can't concern myself with ordinary tripe

E E/D#

D                E         F#m          D
Like what's this morning's paper got to say 
And which brand of coffee to make 
This is no umbrella to take 
D        A         D           A            D          A           E   
Into the wind, and before we begin is there nothing to kill this anxiety

E E/G# E/B E/C# (x2)

   A   E   D       A    F#m     C#m G  D
E------0-4-5p4-2p0---0--5p4-2p0---0------------
B----2-------------2------------2---0~~~~~-----
G--2---------------------------------------2-4-
D--------------------------------------2-4-----
A----------------------------------------------
E----------------------------------------------

   A      E    D            A         F#m       C#m      D           E
E--5--5p4-7---/12-12-10-9-7-5-7-5--5--12-12-10-9-5-12-12-17-16-14-12-17-16-14-12-
B--5------5------------------------5---------------12-12-------------------------
G--------------------------------------------------------------------------------
D--------------------------------------------------------------------------------
A--------------------------------------------------------------------------------
E--------------------------------------------------------------------------------

But your lips when we speak are the valleys and peaks of a mountain range on fire
So let me walk these coals till you believe 
I can cut the mustard well enough 
‘Cause you know as soon as breathe we scrutinize the paint away

Like what's this morning's paper got to say 
And which brand of coffee to make...
#----------------------------PLEASE NOTE-----------------------------#
# This represents the author's own work and interpretation of the    #
# song. To be used only for private study, scholarship, or research. #
#--------------------------------------------------------------------#

blog comments powered by Disqus