Snow Leopard Tab

More Shearwater Tabs

Artist: Shearwater
 Album: Rook
  Song: Snow Leopard

Tabbed by: anton

Verse: 
F C# G#
Chorus:
G# Bbm
Coda:
F Ebsus2 Bbm
These chords are for piano, if you want to play along on a guitar put a capo on 1
(much easier).

guitar parts:

intro:
INTRO/VERSE: piano

the way is to climb
the way is to lie still
and let the moon do its work on your body

e|----------------------------------|
B|----------------------------------|
G|----------------------------------|
D|----------------------------------|
A|----------------------------------|
E|--1-1--2-2--4-4----1-1--2-2--4-6--|


VERSE 2

e|--------------------------------|
B|--------------------------------|
G|--------------------------------|
D|-----3-------4-------6----------|
A|---3---3---4---4---6--6---------|
E|-1-------2-------4--------------|


and then to rise
through forests and oceans of lives
and through the way of the black rocks, splitting, wide,
and flow
ten thousand miles."

well, i've had enough,
wasting my body, my life
i'll come away, come away from the shallows

but can this sullen child,
as bound as the ox that i ride,
climb to the heart of the white wind, singing, high,
and blow
through my frozen eyes?
then break.


OUTRO:
e|---------------------------------------------|
B|---------------------------------------------|
G|---------------------------------------------|
D|---------------last time---------------------|
A|--8-86-64-1-----------8-86-64-1---1---1---1--|
E|--------------------------------2---2---2----|

then pick around these chords:
F Eb F#


#----------------------------PLEASE NOTE-----------------------------#
# This represents the author's own work and interpretation of the    #
# song. To be used only for private study, scholarship, or research. #
#--------------------------------------------------------------------#

blog comments powered by Disqus