I Was A Cloud Tab

More Shearwater Tabs

Artist: Shearwater
 Album: Rook
  Song: I Was A Cloud

Tabbed by: anton

intro:
2x  				2x  
e|---0---0---0---0---0---0-|---0---0---0---0---0---0--|
B|---------0-----------0---|--------------------------|
G|-------------------------|---------0-----------0----|
D|-----2-----------2-------|-----2-----------2--------|
A|-2-----------2-----------|-3-----------3------------|
E|-------------------------|--------------------------|
i was a cloud
i was a clud looking down;
your frantic waving did not provoke feeling.


e|---0---0---0---0---0---0---0---0---0---0---0---0--|
B|--------------------------------------------------|
G|---------4-----------4-----------4-----------4----|
D|-----4-----------4-----------4-----------4--------|
A|-5-----------5-----------5-----------5------------|
E|--------------------------------------------------|
but this little one
steady your wings, 

e|---0---0---0---0---0---0---0---0---0---0---0---0--|
B|--------------------------------------------------|
G|---------0-----------0-----------0-----------0----|
D|-----2-----------2-----------2-----------2--------|
A|-3-----------3-----------3-----------3------------|
E|--------------------------------------------------|
now, sparrow

e|---0---0---0---0---0---0---0---0---0---0---0---0--|
B|--------------------------------------------------|
G|---------4-----------4-----------4-----------4----|
D|-----4-----------4-----------4-----------4--------|
A|-5-----------5-----------5-----------5------------|
E|--------------------------------------------------|
i remembered him
steady your wings, 

e|---0---0---0---0---0---0---0---0---0---0---0---0--|
B|--------------------------------------------------|
G|---------0-----------0-----------0-----------0----|
D|-----2-----------2-----------2-----------2--------|
A|-3-----------3-----------3-----------3------------|
E|--------------------------------------------------|
now, sparrow

e|---0---0---0---0---0---0---0---0---0---0---0---0---0--|
B|---------------------------------------------0--------|
G|---------5-----------4-----------2---------------0----|
D|-----4-----------4-----------4-----------4------------|
A|-5-----------5-----------5-----------5----------------|
E|------------------------------------------------------|


VERSE (like first one)
and in the dark,
from the sea marbled and moon-blue
into the burning eye of the sun
without feeling


CHORUS:

my end was imminent
steady your course now, sparrow
but i remembered him
fear for your home life, sparrow

e|---0---0---0---0---0---0---0---0---0---0---0---0---0--|
B|---------------------------------------------0--------|
G|---------5-----------4-----------2---------------0----|
D|-----4-----------4-----------4-----------4------------|
A|-5-----------5-----------5-----------5----------------|
E|------------------------------------------------------|

e|---0---0---0---0---0---0---0---0---0---0---0-----0--|
B|---------3-----------1-----------0------------------|
G|---------------------------------------------2h0----|
D|-----2-----------2-----------2-----------2----------|
A|-3-----------3-----------3-----------3--------------|
E|----------------------------------------------------|
fear for your home life

riff till end.

#----------------------------PLEASE NOTE-----------------------------#
# This represents the author's own work and interpretation of the    #
# song. To be used only for private study, scholarship, or research. #
#--------------------------------------------------------------------#

blog comments powered by Disqus