#----------------------------PLEASE NOTE-----------------------------#
# This represents the author's own work and interpretation of the    #
# song. To be used only for private study, scholarship, or research. #
#--------------------------------------------------------------------#

Artist: Say Hi
 Album: Impeccable Blahs
  Song: These Fangs

[http://www.indieguitartabs.com/bands/say_hi/these_fangs.html]

Tabbed by: xxnirvana_nightxx@hotmail.com

Intro:

 | 1 + + + 2 + + + 3 + + + 4 + + +   1 + + + 2 + + + 3 + + + 4 + + +
e|---------------------------------|---------------------------------|
B|---------------------------------|---------------------------------|
G|-9~~-----------------------------|---------------------------------|
D|-9~~-----------------------------|---------------------------------|
A|-7~~-----------------------------|---------------------------------| (x1)
E|---------------------------------|---------------------------------|

 | 1 + + + 2 + + + 3 + + + 4 + + +   1 + + + 2 + + + 3 + + + 4 + + +
e|---------------------------------|---------------------------------|
B|---------------------------------|---------------------------------|
G|(9)-(9)-(9)-(9)-(9)-(9)-(9)-(9)--|(9)-(9)-(9)-(9)-(9)-(9)-(9)-(9)--|
D|(9)-(9)-(9)-(9)-(9)-(9)-(9)-(9)--|(9)-(9)-(9)-(9)-(9)-(9)-(9)-(9)--|
A|-7---7---7---7---7---7---7---7---|-7---7---7---7---7---7---7---7---| (x4)
E|---------------------------------|---------------------------------|



Verse:

 | 1 + + + 2 + + + 3 + + + 4 + + +   1 + + + 2 + + + 3 + + + 4 + + +
e|---------------------------------|---------------------------------|
B|---------------------------------|---------------------------------|
G|(9)-(9)-(9)-(9)-(9)-(9)-(9)-(9)--|(9)-(9)-(9)-(9)-(9)-(9)-(9)-(9)--|
D|(9)-(9)-(9)-(9)-(9)-(9)-(9)-(9)--|(9)-(9)-(9)-(9)-(9)-(9)-(9)-(9)--|
A|-7---7---7---7---7---7---7---7---|-7---7---7---7---7---7---7---7---|
E|---------------------------------|---------------------------------|
           Turn away,                        Turn Away, I'm

 | 1 + + + 2 + + + 3 + + + 4 + + +   1 + + + 2 + + + 3 + + + 4 + + +
e|---------------------------------|---------------------------------|
B|---------------------------------|---------------------------------|
G|---------------------------------|---------------------------------|
D|(9)-(9)-(9)-(9)-(9)-(9)-(9)-(9)--|(9)-(9)-(9)-(9)-(9)-(9)-(9)-(9)--|
A|(9)-(9)-(9)-(9)-(9)-(9)-(9)-(9)--|(9)-(9)-(9)-(9)-(9)-(9)-(9)-(9)--|
E|-7---7---7---7---7---7---7---7---|-7---7---7---7---7---7---7---7---|
           not sure,                         

 | 1 + + + 2 + + + 3 + + + 4 + + +   1 + + + 2 + + + 3 + + + 4 + + +
e|---------------------------------|---------------------------------|
B|---------------------------------|---------------------------------|
G|---------------------------------|---------------------------------|
D|(7)-(7)-(7)-(7)-(7)-(7)-(7)-(7)--|(7)-(7)-(7)-(7)-(7)-(7)-(7)-(7)--|
A|(7)-(7)-(7)-(7)-(7)-(7)-(7)-(7)--|(7)-(7)-(7)-(7)-(7)-(7)-(7)-(7)--|
E|-5---5---5---5---5---5---5---5---|-5---5---5---5---5---5---5---5---|
           I'd like to see me this way.

 | 1 + + + 2 + + + 3 + + + 4 + + +   1 + + + 2 + + + 3 + + + 4 + + +
e|---------------------------------|---------------------------------|
B|---------------------------------|---------------------------------|
G|(9)-(9)-(9)-(9)-(9)-(9)-(9)-(9)--|(9)-(9)-(9)-(9)-(9)-(9)-(9)-(9)--|
D|(9)-(9)-(9)-(9)-(9)-(9)-(9)-(9)--|(9)-(9)-(9)-(9)-(9)-(9)-(9)-(9)--|
A|-7---7---7---7---7---7---7---7---|-7---7---7---7---7---7---7---7---|
E|---------------------------------|---------------------------------|


Verse:

Most days these fangs
are inside someone
so you cant see them when,
when I smile at you.


Chorus:

 | 1 + + + 2 + + + 3 + + + 4 + + +   1 + + + 2 + + + 3 + + + 4 + + + 
e|---------------------------------|---------------------------------|
B|---------------------------------|---------------------------------|
G|---------------------------------|---------------------------------|
D|-7---7---7---7---7---7---7---7---|-7---7---7---7---7---7---7---7---|
A|-7---7---7---7---7---7---7---7---|-7---7---7---7---7---7---7---7---|
E|-5---5---5---5---5---5---5---5---|-5---5---5---5---5---5---5---5---|

 | 1 + + + 2 + + + 3 + + + 4 + + +   1 + + + 2 + + + 3 + + + 4 + + + 
e|---------------------------------|---------------------------------|
B|---------------------------------|---------------------------------|
G|-9---9---9---9---9---9---9---9---|---------------------------------|
D|-9---9---9---9---9---9---9---9---|-9---9---9---9---9---9---9---9---|
A|-7---7---7---7---7---7---7---7---|-9---9---9---9---9---9---9---9---|
E|---------------------------------|-7---7---7---7---7---7---7---7---|
           And I don't mind if you wanna hide your fangs too,...

(x4)

 | 1 + + + 2 + + + 3 + + + 4 + + +   1 + + + 2 + + + 3 + + + 4 + + + 
e|---------------------------------|---------------------------------|
B|---------------------------------|---------------------------------|
G|---------------------------------|---------------------------------|
D|-8---8---8---8---8---8---8---8---|-8---8---8---8---8---8---8---8---|
A|-7---7---7---7---7---7---7---7---|-7---7---7---7---7---7---7---7---|
E|-5---5---5---5---5---5---5---5---|-5---5---5---5---5---5---5---5---|



Chorus Riff:

   1 + + + 2 + + + 3 + + + 4 + + +   1 + + + 2 + + + 3 + + + 4 + + +
e|---------------------------------|---------------------------------|
B|---------------------------------|---------------------------------|
G|-2~------------------------------|-----------------6-------4-------|
D|---------------------------------|---------------------------------|
A|---------------------------------|-------------7-------------------|
E|---------------------------------|---------------------------------|

   1 + + + 2 + + + 3 + + + 4 + + +   1 + + + 2 + + + 3 + + + 4 + + +
e|---------------------------------|---------------------------------|
B|---------------------------------|---------------------------------|
G|---------------------------------|---------------------------------|
D|-6~--------------6---7-----------|-4~--------------4---6-----------|
A|---------------------------------|---------------------------------| 
E|---------------------------------|---------------------------------|

(x4)

   1 + + + 2 + + + 3 + + + 4 + + +   1 + + + 2 + + + 3 + + + 4 + + +
e|---------------------------------|---------------------------------|
B|---------------------------------|---------------------------------|
G|-5---5---5---5---5---5---5---5---|-5~------------------------------|
D|---------------------------------|---------------------------------|
A|---------------------------------|---------------------------------|
E|---------------------------------|---------------------------------|


Verse: (x2)
Its okay if you want out
go find yourself another.
I'll just sit here there's good stuff on the tele.
But no nothing good can
ever come from the convergence
of two, two dark gloves

Chorus + Chorus Riff: (x1)
And I don't mind if you wanna hide your fangs too,... (x4)

Intro (x1)
Verse (x1)
Chorus + Chorus Riff: (x1)
And I don't mind if you wanna hide your fangs too,... (x4)