Northwestern Girls Tab

More Say Hi Tabs

Artist: Say Hi
 Album: The Wishes And The Glitch
  Song: Northwestern Girls

Tabbed by: justin@indieguitartabs.com

Note: On the CD this is either played in Drop-D tuning
or is tuned down one full-step, because the D played
is actually lower (not higher, as I have it). I've
included quick notation on how that would change the tab.

   G                   Drop-D    Full step
e|------------------    -----    -----
B|------------------    -----    -----
G|------------------ or ----- or -----
D|------------------    -----    -----
A|-----5-----5---5--    ---5-    ---7-
E|-3-3---3-3---3----    -5---    -5---

   Bm                  Drop-D    Full s
e|------------------    -----    -----
B|------------------    -----    -----
G|------------------ or ----- or -----
D|------------------    -----    -----
A|-----9-----9---9--    ---9-    ---11
E|-7-7---7-7---7----    -9---    -9---

   D                        Drop-D    Full step
e|-----------------------    -----    -----
B|-----------------------    -----    -----
G|----------------------- or ----- or -----
D|-----------------------    -----    -----
A|-------12------12---12-    ---0-    ---2-
E|-10-10---10-10---10----    -0---    -0---

   A                   Drop-D    Full s
e|------------------    -----    -----
B|------------------    -----    -----
G|------------------ or ----- or -----
D|------------------    -----    -----
A|-----7-----7---7--    ---7-    ---9-
E|-5-5---5-5---5----    -7---    -7---

G    Bm      D      A
Northwestern girls,
G    Bm          D      A
with their fresh faces.
G     Bm         D      A
Don't mess it up this time.
G    Bm          D      A
Cuz they seem so nice.
                  G        Bm    D     A
It must be in the air here. (x4)

G    Bm          D      A
Northwestern girls,
G      Bm      D       A
I'm all grown up this time,
   G        Bm       D   A    G
I swear. At least I lie different
 Bm            D           A
         when you seem so nice.

                  G        Bm    D     A
It must be in the air here. (x4)

G

#----------------------------PLEASE NOTE-----------------------------#
# This represents the author's own work and interpretation of the    #
# song. To be used only for private study, scholarship, or research. #
#--------------------------------------------------------------------#

blog comments powered by Disqus