#----------------------------PLEASE NOTE-----------------------------#
# This represents the author's own work and interpretation of the    #
# song. To be used only for private study, scholarship, or research. #
#--------------------------------------------------------------------#

Artist: Rosie Thomas
  Song: Much Farther To Go

[http://www.indieguitartabs.com/bands/rosie_thomas/04_much_farther_to_go.html]

Tabbed by: Kelly (klaukee at yahoo dot com)

 

Capo 3rd Fret 

Intro & Verse: 
e|----------------------------------------------------------------------------------------------------|
B|-------------------0--------------------------------0--------------------------------0--------------|
G|---0------0---------------0-------0------0----------------0-------0-------0----------------0--------|
D|-------0--------------0---------------0----------------0---------------0----------------0-----------|
A|----------------------------------------------------------------------------------------------------|
E|---3----------3---------------2---------------2----------------0---------------0-----------------0--|
 
e|----0---------------0-------------------------------------------------------------------------------|
B|-----------------------------------------3-------------------------3--------------------------3-----|
G|-----------0-------------0-------0-----------0-----0-----0-------------0----0------0----------------|
D|-------------------------------------0-----------0------------0------------0-------------0----------|
A|------------------------------3------------3-----------2-------------2-----------0------------------|
E|-------0-------0------0-----------------------------------------------------------------------------|

e|----------------------------------------------------------------------------------------------------|
B|--------------3------------3------------------------------------------------------------------------|
G|-------0------------0-------------0-----------------------------------------------------------------|
D|----------0------------0--------------0-------------------------------------------------------------|
A|---0------------0-------------0---------------------------------------------------------------------|
E|----------------------------------------------------------------------------------------------------|

Chorus:

(X4)
e|------------------------0---------------------------------------------------------------------------|
B|---0------0-----0-----------0----0------0------3--------------3----------3----------------3---------|
G|-------0-----------0-----------0------------0----------0---------------0-----------0--------------0-|
D|---2---------2-----------2-----------2--------------0--------------0-----------0--------------0-----|
A|--------------------------------------------------2---------2--------------2------------2-----------|
E|----------------------------------------------------------------------------------------------------|
 

New York is lovely in the winter time
How the sidewalks are white as snow
The buildings, all the people that pass me by
How the smile on his face, he's in love 
I took a train all the way to Brooklyn Heights
And I remember when you took it there with me
We sat side by side and held hands for some time,
Which eluded the statue of liberty and I 

Chorus:
I have much farther to go and
Everything new and so unpredictable
I should just kick my heels together and go home
But I'm not sure where that is, anymore 
Oooo how I wish I could go back in time
To the night when I heard my mother cry
She held me in her arms and we talked for some time
And I sang a song her mother sang to her, it goes 

Chorus:
Something about paper dolls and what men prefer
Something about the cross and how her Jesus died for her
Something about love and how it's worth fighting for
But I'm not sure love like that exists anymore 
And I have much farther to go and I
I'm so confused
I should just kick my heels together and go home
But I lost my way, when I lost you 
Sometimes I cry when it's late at night
And your not there to lay next to me
Morning breaks and the sun warms my face
How I wish it was you warming me