Publish My Love Tab

More Rogue Wave Tabs

Artist: Rogue Wave
 Album: Descended Like Vultures
  Song: Publish My Love

Tabbed by: justin@indieguitartabs.com

Capo 2

Intro riff:
e|------------------------------|----------------------------|
B|------------------------------|----------------------------|
G|-2-2-2--4-4-4--7-7-7--9-9-9-9-|-2-2-2--4-4-4--7-7-7--4-4-4-|
D|------------------------------|----------------------------|
A|------------------------------|----------------------------|
E|------------------------------|----------------------------|

Verse: A D
   A                                 D
e|---------------------------------|-------------------------|
B|-2---0---2---0---2---0---2---0---|-------------------------|
G|---2---2---2---2---2---2---2---2-|-----2-----2-----2-----2-|
D|---------------------------------|-0-0---0-0---0-0---0-0---|
A|---------------------------------|-------------------------|
E|---------------------------------|-------------------------|

A           D
Wait there, just enough to see you smile.
A              D
I mixed up the distance of the miracle mile.

Chorus:
D               A          G        Em
you could never publish my love
D               A          G        Em
you could never publish my love
D               A          G        Em
you could never publish my love
D               A          G        Em
you could never publish my love

Just stand there, you could never make me go through it.
The congas, they're bleeding through his bit-battle wounds

you could never publish my love
you could never publish my love
you could never publish my love
you could never publish my love

Em                 G
Whip me, but don't beat me.
Em 
I can't can't call?
G
you never left?

(intro riff)
Break

The sun beats down upon the brain of confusion?
But houses much better if the roof is connected.

you could never publish my love
you could never publish my love
you could never publish my love
you could never publish my love

Whip me, but don't beat me.
Yeah, I Can't cat fall?
I
A cat cat call?
You never left.
A cat cat call.

#----------------------------PLEASE NOTE-----------------------------#
# This represents the author's own work and interpretation of the    #
# song. To be used only for private study, scholarship, or research. #
#--------------------------------------------------------------------#

blog comments powered by Disqus