#----------------------------PLEASE NOTE-----------------------------#
# This represents the author's own work and interpretation of the    #
# song. To be used only for private study, scholarship, or research. #
#--------------------------------------------------------------------#

Artist: Rogue Wave
 Album: Descended Like Vultures
  Song: You

[http://www.indieguitartabs.com/bands/rogue_wave/you.html]

Tabbed by: Skyler Arabak

opening notes
e|---6r/8/6--------------------------------------------------
B|-----------------------------------------------------------
G|-----------------------------------------------------------
D|-----------------------------------------------------------
A|-----------------------------------------------------------
E|-----------------------------------------------------------

Slides before the crescendo
e|-----------------------------------------------------------
B|---3/4-4/6-6/8-8/9-9/11-11/13-13/15-15---------------------
G|-----------------------------------------------------------
D|-----------------------------------------------------------
A|-----------------------------------------------------------
E|-----------------------------------------------------------

last part
e|-------------------------------------------6-8-6-8-6-------
B|---6-4-6-4-6-4-6-4-6-4-3-4--------6-4-3-4------------------
G|---------------------------3r------------------------------
D|-----------------------------------------------------------
A|-----------------------------------------------------------
E|-----------------------------------------------------------

e|---------------------------6-8-6-8-6-----------------------
B|---6-4-3-4--------6-4-3-4----------------------------------
G|------------3r---------------------------------------------
D|-----------------------------------------------------------
A|-----------------------------------------------------------
E|-----------------------------------------------------------



last part(alternate method)
e|-----------------------------------------------------------
B|-----------------------------------------------------------
G|-----------------------------------------------------------
D|---12-13-12-13-12-13-12-13---15-13-12-13-------------------
A|-----------------------------------------13----------------
E|-----------------------------------------------------------

e|-----------------------------------------------------------
B|-----------------------------------------------------------
G|-----------------------------------------------------------
D|---12-13-12-13-12-13-12-13---15-13-12-13-------------------
A|-----------------------------------------13----------------
E|-----------------------------------------------------------

e|-----------------------------------------------------------
B|-----------------------------------------------------------
G|---------------15-17-15-17---------------------------------
D|---15-13-12-13---------------------------------------------
A|-----------------------------------------------------------
E|-----------------------------------------------------------

Hedge shapes narrowing
Brain stored in the freezer
Wind-tops bellowing
It's a creeper double-feature


Jaundiced and yellowing
I've always been a late bloomer
Shoegaze shimmering
There's no season to see it, I needed that


One day I...
One day I found you


Engines in the wind
And a heroes welcome
Pillows of reclessness
But you just pop your mouth off


Kiss the abdomen
Till it's less than perfect
Till it looks like everyone
Can get so conceited and need it, oh ya

One day I...
One day I found you

One day I...
One day I found you