#----------------------------PLEASE NOTE-----------------------------#
# This represents the author's own work and interpretation of the    #
# song. To be used only for private study, scholarship, or research. #
#--------------------------------------------------------------------#

Artist: Rogue Wave
 Album: Asleep At Heaven's Gate
  Song: Chicago x 12 (ver 2)

[http://www.indieguitartabs.com/bands/rogue_wave/chicago_x_12_ver2.html]

Tabbed by: MLaz

(Guitar tuned standard, down a whole step)

Intro: 

|----------------------------------------------
|-12--12--12--12--10--10--7--7---8--8--8--8----
|---12--12--12--12--11--11--7--7--9--9--9--9---
|----------------------------------------------
|----------------------------------------------
|----------------------------------------------

|--------------------
|-13--13--13--13-----
|----9---9---9---9---  (play twice)
|--------------------
|--------------------
|--------------------

(then)

|--------------------------------------------------
|--------------------------------------------------
|--------------------------------------------------
|--------------------------------------------------
|-2--2--2--2--3--3--3--3--5--5--5--5--6--6--6--6---
|--3--3--3--3--5--5--5--5--7--7--7--7--8--8--8--8-- 

(play twice, for the last one hold the 6) 

Chord positions: 
   G6    Cadd9    Dsus2    Em7
|--0-------0-------0-------0------
|--3-------3-------3-------3------
|--0-------0-------2-------0------
|--0-------2-------0-------2------
|--2-------3-------x-------2------
|--3-------x-------x-------0------

(just listen for the chord changes)

G6
we had fun in the sun
Cadd9
but now you've thrown it away
G6
tossing out the baby with the bathtub
Cadd9
these dogs have strayed
G6			       Dsus2        Em7
you'll never know how hard I tried
	      Cadd9	        Dsus2         (just pick around)
to keep my worries in line but they're all bastards

G6
gone are the good old days of
Cadd9
painting young courtney pine
G6
listened to the taunts and the shouts of
Cadd9
celebration wine
G6			Dsus2			  Em7
i never could make it work out right
		Cadd9		      Dsus2                                  G6
her milk glows in the blacklight but it don't matter!
		 Dsus2 		   Em7                Cadd9 
because no one comes out to see us			 (repeat)	   

               Em7			Dsus2
well my pain's in a rutt
	       Em7			Dsus2
I've been lonely enough
	       Em7		        Dsus2
I've bled los angeles blood
		Em7		Dsus2
I've had enough of this stuff

(intro riff)

chords under the intro riff:

G6		 Dsus2 		   Em7        Cadd9 

(chords are the same as above for the rest of the song)

you can't go on with what you're doing
because they already know
you run your life into ruin
there's so much to show
you'll never know how hard I tried
her milk glows in the blacklight
but it don't matter

because no one comes out to see us

well my pain's in a rutt
I've been lonely enough
I've bled los angeles blood
I've had enough of this stuff

no one comes out to see us