#----------------------------PLEASE NOTE-----------------------------#
# This represents the author's own work and interpretation of the    #
# song. To be used only for private study, scholarship, or research. #
#--------------------------------------------------------------------#

Artist: Rogue Wave
 Album: Asleep At Heaven's Gate
  Song: Chicago x 12

[http://www.indieguitartabs.com/bands/rogue_wave/chicago_x_12.html]

Tabbed by: Steve Fischer

Tuned down whole step (EADGBE becomes DGCFAD)

Intro
D----------------------------------------------------------
A----12-12-12-12---10-10-----------------------------------
F-----------------------11-11-12-12-12-12--17-17-17-17-17--   x2
C----------------------------------------------------------
G----------------------------------------------------------
D----------------------------------------------------------


D----------------------------------------------------------
A----12-12-12-12--13-13-13-13--15-15-15-15--16-16-16-16----
F----------------------------------------------------------
C----------------------------------------------------------
G----------------------------------------------------------
D----------------------------------------------------------


D----------------------------------------------------------
A----12-12-12-12--13-13-13-13--15-15-15-15--16-16-16-------
F----------------------------------------------------------
C----------------------------------------------------------
G----------------------------------------------------------
D----------------------------------------------------------

G
We had fun in the sun

C                             G
but now you've thrown it away

                                    C
tossing out the baby with the bathtub

                      G
these dogs have strayed

        D                      Em
you'll never know how hard I tried

C                        D
to keep my worries in line

                      G
but they're all bastards

 G
gone are the good old days
C                              G

of painting young courtney pine


listened to the taunts and the shouts

C                   G
of celebration wine

        D                      Em
I never could make it work out right

C                            D
her milk glows in the blacklight
                   G

but it don't matter



             D              Em          C      G
because no one comes out to see us
             D              Em          C      G
because no one comes out to see us

 C                     D
well my pain's in a rut

C                     D
I've been lonely enough

C                     D
I've bled Los Angeles blood

C                     D
I've had enough of this stuff

* * *Intro Solo*


G                                     C
you can't go on with what you're doing

                        G
because they already know

                           C
you run your life into ruin

                       G
there's so much to show

              D                 Em
you'll never know how hard I tried

              C                  D
her milk glows in the blacklight

                   G
but it don't matter


             D              Em          C      G
because no one comes out to see us

             D              Em          C      G
because no one comes out to see us

             D              Em          C      G
because no one comes out to see us

 C                     D
well my pain's in a rut

C                     D
I've been lonely long enough

C                     D
I've bled Los Angeles blood

C                     D
I've had enough of this stuff


             D              Em          C      G
because no one comes out to see us

             D              Em          C      G
because no one comes out to see us
             D              Em          C      G
because no one comes out to see us