#----------------------------PLEASE NOTE-----------------------------#
# This represents the author's own work and interpretation of the    #
# song. To be used only for private study, scholarship, or research. #
#--------------------------------------------------------------------#

Artist: Rogue Wave
 Album: Out of the Shadow
  Song: Be Kind & Remind

[http://www.indieguitartabs.com/bands/rogue_wave/be_kind_remind.html]

Tabbed by: justin@indieguitartabs.com

[intro]
   G     Am7   C     G/B
e|-------------------------|
B|---0---1p0-----5-----3---|
G|-----0-----0-----0-----0-|
D|-------------------------| x4
A|-------0-----3-----2-----|
E|-3-----------------------|

[verse]
e|-------------------------|
B|---0---1p0-----5-----3---|
G|-----0-----0-----0-----0-|
D|-------------------------| x4
A|-------0-----3-----2-----|
E|-3-----------------------|
   better learn how to run
   before you walk, babe
   i'll be with you for a while

e|-------------------------|-------2------------0-----|
B|---2-----2-----2-----2---|---3------3-----1-----1---|
G|-----2-----2-----2-----0-|-----2------2-----0-----0-|
D|-------2-----------2-----|-0------------------------|
A|-0-----------0-----------|--------------3-----------|
E|-------------------------|--------------------------|
   nature's                  been         good, oh really

e|-------------------------|
B|---0---1p0-----5-----3---|
G|-----0-----0-----0-----0-|
D|-------------------------| x2
A|-------0-----3-----2-----|
E|-3-----------------------|


[verse]
e|-------------------------|
B|---0---1p0-----5-----3---|
G|-----0-----0-----0-----0-|
D|-------------------------| x4
A|-------0-----3-----2-----|
E|-3-----------------------|
   I follow you down the path
   toward the seals, babe
   the beach is broken glass

e|-------------------------|-------2------------0-----|
B|---2-----2-----2-----2---|---3------3-----1-----1---|
G|-----2-----2-----2-----0-|-----2------2-----0-----0-|
D|-------2-----------2-----|-0------------------------|
A|-0-----------0-----------|--------------3-----------|
E|-------------------------|--------------------------|
      you can't                    have  every - thing

e|-------------------------|
B|---0---1p0-----5-----3---|
G|-----0-----0-----0-----0-|
D|-------------------------| x2
A|-------0-----3-----2-----|
E|-3-----------------------|

[chorus]
e|--------------------------| |-------------------------| |--------------------------|
B|----0-----0-----1-----1---| |---0-----1-----5-----3---| |---0-----1----5--5--3--3h-|
G|------0-----0-----0-----0-| |-----0-----0-----0-----0-| |-----0-----0--------------|
D|--2-----2-----------2-----| |-------------------------| |--------------------------|
A|--------------3-----------| |-------0-----3-----2-----| |-------0------3--3--1--1--|
E|--------------------------| |-3-----------------------| |-3------------------------|
   Please be    kind                                                        Ah ah ah ah
   and    re -  mind

e|-------------------------|
B|---0---1p0-----5-----3---|
G|-----0-----0-----0-----0-|
D|-------------------------| x2
A|-------0-----3-----2-----|
E|-3-----------------------|

[verse]
e|--------------------------|
B|---0---1p0------5-----3---|
G|-----0------0-----0-----0-|
D|--------------------------| x4
A|-------0------3-----2-----|
E|-3------------------------|
   I wanted to run with wolves
   and the horses
   while you're home on the range

e|-------------------------|-------2------------0-----|
B|---2-----2-----2-----2---|---3------3-----1-----1---|
G|-----2-----2-----2-----0-|-----2------2-----0-----0-|
D|-------2-----------2-----|-0------------------------|
A|-0-----------0-----------|--------------3-----------|
E|-------------------------|--------------------------|
         just  one  (just    one)  is     good    for    me

e|-------------------------|
B|---0---1p0-----5-----3---|
G|-----0-----0-----0-----0-|
D|-------------------------| x2
A|-------0-----3-----2-----|
E|-3-----------------------|

[chorus]
e|--------------------------| |-------------------------|
B|----0-----0-----1-----1---| |---0-----1-----5-----3---|
G|------0-----0-----0-----0-| |-----0-----0-----0-----0-|
D|--2-----2-----------2-----| |-------------------------|
A|--------------3-----------| |-------0-----3-----2-----|
E|--------------------------| |-3-----------------------|
   Please be    kind
   and    re -  mind

e|-------------------------|
B|---0---1p0-----5-----3---|
G|-----0-----0-----0-----0-|
D|-------------------------|
A|-------0-----3-----2-----|
E|-3-----------------------|

e|-------------------3-----|   |---------------0----------------|
B|-----3-----5-----0---0---|   |-----3-----5------3p1-0-1p0-----|
G|---0-----0-----0-------0-|   |---0-----0------------------2p0-|
D|-------------------------|x3 |--------------------------------|
A|-1-----3-----------------|   |-1-----3------------------------|
E|-------------3-----------|   |--------------------------------|

[chorus]
   Em           C
e|--------------------------| |-------------------------|
B|----0-----0-----1-----1---| |---0-----1-----5-----3---|
G|------0-----0-----0-----0-| |-----0-----0-----0-----0-|
D|--2-----2-----------2-----| |-------------------------|
A|--------------3-----------| |-------0-----3-----2-----|
E|--------------------------| |-3-----------------------|
   Please be    kind
   and    re -  mind

e|-------------------------| |-----------------------|
B|---0-----1-----5-----3---| |-7-----7-----0-----1---|
G|-----0-----0-----0-----0-| |---0-----------0-----0-|
D|-------------------------| |-----------------------| x4
A|-------0-----3-----2-----| |-5---5-5---------0-----|
E|-3-----------------------| |-----------3-----------|

e|------------------------------------------------------|
B|-7-----7-----7-----7-----8-----8-----10-----10-----12-|
G|---0-0---0-0---0-0---0-0---0-0---0-0----0-0----0-0----|
D|------------------------------------------------------|
A|-5-----5-----6-----6-----7-----7-----8-------8-----10-|
E|------------------------------------------------------|