#----------------------------PLEASE NOTE-----------------------------#
# This represents the author's own work and interpretation of the    #
# song. To be used only for private study, scholarship, or research. #
#--------------------------------------------------------------------#

Artist: Rogue Wave
 Album: Descended Like Vultures
  Song: Temporary

[http://www.indieguitartabs.com/bands/rogue_wave/11_temporary.html]

Tabbed by: justin@indieguitartabs.com

C           G
Sometimes I feel so low
        Am
I can't go on knowin'
C           G               Am
Here in the island log sharin' my mind
            C   G
Upstairs an attic

C           G               Am 
Witness the bubble breakin' down the spine
C            G                       Am
When we come through the rain almost by design

            C   G
Upstairs an attic
            C   G
Upstairs an attic
F     G
    Angel
F     G
    Angel

C   G

[solo tabbed_by="ariane klassen"]

e|-0-03035--0--030---0---0---03035--0---030---0----0-----0-----------------|
b|--3---------3----3-------3----------3-----3--------31-----3-1------------|
g|-------------------------------------------------------------------------|
d|-------------------------------------------------------------------------|
a|-------------------------------------------------------------------------|
e|-------------------------------------------------------------------------|

e|-0-03035--0--030---0---0---0353--0----0----------------------------------|
b|--3---------3----3-------3---------31-----3-1----------------------------|
g|-------------------------------------------------------------------------|
d|-------------------------------------------------------------------------|
a|-------------------------------------------------------------------------|
e|-------------------------------------------------------------------------|


            C   G
Upstairs an attic
F     G
Angel
F     G
Angel