#----------------------------PLEASE NOTE-----------------------------#
# This represents the author's own work and interpretation of the    #
# song. To be used only for private study, scholarship, or research. #
#--------------------------------------------------------------------#

Artist: Rogue Wave
 Album: Descended Like Vultures
  Song: California (ver 3)

[http://www.indieguitartabs.com/bands/rogue_wave/07_california_capo3.html]

Tabbed by: "Gabriel K" (kgabk@yahoo.co.in)

Open D tuning (low to high):

D A D F# A D

Capo 3

The verse

|-------0--------------------------------0--------------0-----
|-------0--------------------------------0--------------0-----
|-------0-------------1---0--------------0--------------0-----
|---0--------0---2------------0---0h2---------0h2-------0-----
|---0-----------------------------0h2---------0h2-------0-----
|---0-----------------------------0-----------0---------0-----


|------0-----0--------0--------0-------0-----0----------------
|---4-----4-------4--------2-------2------2-------------------
|---3-----3-------3--------3-------3------3-------------------
|---4-----4-------4--------2-------2------2-------0h2--2---0--
|-------------------------------------------------0h2--2---0--
|-------------------------------------------------0--------0--

That other chord in the chorus part
|-----------------------|-------------------------------------
|-----------------------|-------------------------------------
|-----------------------|-------------------------------------
|-----0----0----0-------|---0--0--0----0---0---0----0--0--0---
|-----2----2----2-------|---0--0--0----2---2---2----0--0--0---
|-----2----2----2-------|---0--0--0----2---2---2----0--0--0---

The "outro"
|---0-----0-------0---------0-------|-------------------------
|---4-----4-------4---------7-------|---2----2----2---?-------
|---3-----3-------3---------8------ |---0----0----0---?-------
|---4-----4-------4---------7-------|---2----2----2---?-------
|---0-------------------------------|---2----2----2---?-------
|---0-----------------------------------2----2----2---?-------

screw california
and friends that are never there
and places that they oughta
pretend that they even care

from our false family, she could light you up
like a holiday tree, in the summer

so lead us there

so screw california
and ice that will never melt
from hearts of the modern
children of cicero

from our false family, she could light you up
like a holiday tree, it was summer up

so lead us there

ahh ah ah oh oh
ahh ah ah oh oh

so lead us there  x4