#----------------------------PLEASE NOTE-----------------------------#
# This represents the author's own work and interpretation of the    #
# song. To be used only for private study, scholarship, or research. #
#--------------------------------------------------------------------#

Artist: Rogue Wave
 Album: Descended Like Vultures
  Song: Salesman At The Day Of The Parade

[http://www.indieguitartabs.com/bands/rogue_wave/03_salesman.html]

Tabbed by: justin@indieguitartabs.com

Contributor: Brodie Conley (punk_guy5@hotmail.com)

Capo 2

Intro:

Guitar 1 plays: E  (D  F#m) repeat

    /--E-----\     D        F#m
e|--0-----0--0-------2---------2------
B|--0-----0--0-----------3---------2--
G|--4-----1--1-----2---2-----2---2----
D|--2-----2--2-----0---0-----4---4----
A|--2-----0--2------------------------
E|------------------------------------

Guitar 2 plays:
    E   D   F#m
e|--0---0---0---
B|--0---0---0---
G|--9---7---2---
D|--9---7---4---
A|--7---5---4---
E|--------------

Chorus:
     C#m  A    E    B         G#m  F#m  Bsus4/B   
e|---0----0----0----0---    --4----2----0-----0---
B|---5----0----0----0---    --4----2----0-----0---
G|---6----6----9----8--- x2 --4----2----9-----8---
D|---6----7----9----9---    --6----4----x-----9---
A|---4----7----7----9---    --6----4----9-----9---
E|--------5---------7---    --4----2----7-----7---

Verse:
I'm so sorry for what I've done
I went into it like man
And the only thing on my skin
Is some beach blown images

Chorus:
Every corner that you have
You don't miss me, but I really don't mind
Don't float around girl, it'll be alright

Verse:
And the hardest thing that I've done
Is layin' down with someone
And the idiots in Detroit
Well they've all gone sour...everyone lies

Every corner that you have
You really don't miss me, but I really don't mind
Don't float around girl, it'll be alright
It'll be alright, tomorrow

I'm so sorry for what I've done