Catform Tab

More Rogue Wave Tabs

Artist: Rogue Wave
 Album: Descended Like Vultures
  Song: Catform


Note: Any help with the lyrics would be greatly appreciated.

This is probably 85% of the song. Additions and corrections are welcome.

Capo 7

Acoustic riff

e|-----------------------------
B|---1------1------1------1----
G|-----0------0------0------0--
D|-3------2--------------------
A|---------------3------2------
E|-----------------------------

Pre chorus:

e|-------------------
B|-------------------
G|-------------------
D|-2----1----2----1--
A|-------------------
E|-------------------


Chorus:  G  F  C

Post chorus (lead into acoustic riff):

e|-------------
B|-------------
G|-------------
D|--------0-2--
A|--0-2-3------
E|-------------




#----------------------------PLEASE NOTE-----------------------------#
# This represents the author's own work and interpretation of the    #
# song. To be used only for private study, scholarship, or research. #
#--------------------------------------------------------------------#

blog comments powered by Disqus