California (ver 2) Tab

More Rogue Wave Tabs

Artist: Rogue Wave
 Album: Descended Like Vultures
  Song: California (ver 2)

This is still in progress.

Capo on 1

-----0----0------------0-----0-----0--------0
-----0----0------------0-----0-----0--------0
-----4----2h4/4p2------2-----1-----1--------1
-----2----2------------4-----2-----2--------2h4
-----2----2------------2-----2-----2h4------2
-----0----0------------0-----0-----0--------0


Chorus
-----0-----0----0----0----0----0-----0----0-----0----0----0----0-----?
-----4----------4---------4----------2----------2---------2----------?
-----1----------1---------1----------1----------1---------1----------?
-----2----------2---------2----------4----------4---------4----------?
-----2----------2---------2----------2----------2---------2----------?
-----0----------0---------0----------0----------0---------0----------?

After Chorus
-----x
-----x
-----x x4
-----2
-----4
-----2

screw california
and friends that are never there
and places that they oughta
pretend that they even care

from our false family, she could light you up
like a holiday tree, in the summer

so lead us there

so screw california
and ice that will never melt
from hearts of the modern
children of cicero

from our false family, she could light you up
like a holiday tree, it was summer up

so lead us there

ahh ah ah oh oh
ahh ah ah oh oh

so lead us there  x4

#----------------------------PLEASE NOTE-----------------------------#
# This represents the author's own work and interpretation of the    #
# song. To be used only for private study, scholarship, or research. #
#--------------------------------------------------------------------#

blog comments powered by Disqus