California Tab

More Rogue Wave Tabs

Artist: Rogue Wave
 Album: Descended Like Vultures
  Song: California

Tabbed by: justin@indieguitartabs.com

This is the best I can do right now.

Open E tuning (low to high)

E B E G# B E

Tune 5th string A to the 7th fret of 6th string E.
Tune 4th string D to the 5th fret of 5th string B.
Tune 3rd string G to the 4th fret of 4th string E.

Capo on 1st.

Verse:
|-------------------------------------------
|------0-0-0-0---0-0-0----------------------
|--0-0-0-0-0-0-0-1-0-0---0-0-0-0---0-0-0-0--
|--0-0-4-4-0-0-2-0-4-0-0h2-2-2-2-0h2-2-0-0--
|--0-0-0-0-0-0-0-0-0-0-0h2-2-2-2-0h2-2-0-0--
|--0-0-0-0-0-0-0-0-0-0---0-0-0-0---0-0-0-0--

Chorus:
|--0-0-0-0-0-0-0-0-0-0-0-0-0-0-0-0-0-0--
|--4-4-4-4-4-4-4-4-4-2-2-2-2-2-2-2-2-2--
|--0-0-0-0-0-0-0-0-0-0-0-0-0-0-0-0-0-0--
|--4-4-4-4-4-4-4-4-4-2-2-2-2-2-2-2-2-2--
|--0-0-0-0-0-0-0-0-0-0-0-0-0-0-0-0-0-0--
|---------------------------------------

End Chorus:
|---------------------------------------
|---------------------------------------
|----0-0-0-0---0-0-0-0------------------
|--0h2-2-2-2-0h2-2-0-0----0-0-0--0-0-0--
|--0h2-2-2-2-0h2-2-0-0----2-2-2--2-2-2--
|----0-0-0-0---0-0-0-0----2-2-2--2-2-2--


screw california
and friends that are never there
and places that they oughta
pretend that they even care

from our false family, she could light you up
like a holiday tree, in the summer

so lead us there

so screw california
and ice that will never melt
from hearts of the modern
children of cicero

from our false family, she could light you up
like a holiday tree, it was summer up

so lead us there

ahh ah ah oh oh
ahh ah ah oh oh

so lead us there  x4

#----------------------------PLEASE NOTE-----------------------------#
# This represents the author's own work and interpretation of the    #
# song. To be used only for private study, scholarship, or research. #
#--------------------------------------------------------------------#

blog comments powered by Disqus