Fake Blues Tab

More Real Estate Tabs

Artist: Real Estate 
 Album: Real Estate 
  Song: Fake Blues 

Tabbed by: D. Vitucci 

Great Song. Pretty Easy Tab.


Main riff:
E|---------------|
B|---------------|
G|---4-6--6-4----|
D|-6----------6--| 
A|---------------|
e|---------------|

E|-------------------|
B|-------------------|
G|-----4---------4---|
D|-4/6---6\4-4/6---6-|
A|-------------------|
e|-------------------|

Guitar II plays the phrase a bit higher:

E|---7-9--9-7----|
B|-9----------9--|
G|---------------|
D|---------------| 
A|---------------|
e|---------------|

Chorus:
E|--------------------------|
B|--------------------------|
G|---4--------4-------------|
D|-6---4--4-6---6-----------| 
A|--------------------------|
e|--------------------------|
   Well, it's not as if I choose

E|--------------------------|
B|--------------------------|
G|---4-6--8-6-4-------------|
D|-6------------6-----------| 
A|--------------------------|
e|--------------------------|
   To be stuck with these fake blues

E|--------------------------|
B|--------------------------|
G|---4-----------------4-4--|
D|-6---4-4-2-4-6-6-6-6-6-6--| 
A|--------------------------|
e|--------------------------|
   But I've gotta find a reason to sing this song

E|--------------------------|
B|--------------------------|
G|-4-4-4-4-4-4-2------------|
D|-6-6-6-6-6-6-4------------| 
A|--------------------------|
e|--------------------------|
   For I won't be here that long...


#----------------------------PLEASE NOTE-----------------------------#
# This represents the author's own work and interpretation of the    #
# song. To be used only for private study, scholarship, or research. #
#--------------------------------------------------------------------#

blog comments powered by Disqus