The Elephant Boy Tab

More Randy Ichinose Tabs

Artist: Randy Ichinose
 Album: All Pilots At The Ready
  Song: The Elephant Boy

Tabbed by: Jack

e|-------------|
B|-3--0--1--0--|
G|-0--0--0--0--|
D|-2--2--2--2--|
A|-2--2--2--2--|
E|-0--0--0--0--|

Rit

e|---------------------|
B|-1--3--1--3--1--3--8-|
G|-0--0--0--0--0--0--0-|
D|-2--4--2--4--2--4--9-|
A|-3--5--3--5--3--5--10|
E|---------------------|

"And you are my sin..."
e|-------|
B|-1--0--|
G|-0--0--|
D|-2--2--|
A|-3--3--|
E|-------|
#----------------------------PLEASE NOTE-----------------------------#
# This represents the author's own work and interpretation of the    #
# song. To be used only for private study, scholarship, or research. #
#--------------------------------------------------------------------#

blog comments powered by Disqus