#----------------------------PLEASE NOTE-----------------------------#
# This represents the author's own work and interpretation of the    #
# song. To be used only for private study, scholarship, or research. #
#--------------------------------------------------------------------#

Artist: PS I Love You
  Song: Starfield

[http://www.indieguitartabs.com/bands/ps_i_love_you/starfield.html]

Tabbed by: Senor Choco-Cuatro


G|-4---2--1-------|----------------|
D|--2---1--2------|-4--4-6-2-------|    X2   Intro (muted)
A|44442222--222222|--6--4-4-2222222|
E|--------00000000|5555555500000000|


G|----------------|----------------|
D|2222111122222222|4444444422222222|    X2   Verse 1 (muted)
A|4444222222222222|6666444422222222|
E|--------00000000|5555555500000000|


G|-4---2--1-------|----------------|
D|--2---1--2------|-4--4-6-2-------|    X2   Chorus 1 (unmuted)
A|44442222--222222|--6--4-4-2222222|
E|--------00000000|5555555500000000|


G|----------------|----------------|
D|2222111122222222|4444444422222222|    X2   Verse 2 (muted)
A|4444222222222222|6666444422222222|
E|--------00000000|5555555500000000|


G|-4---2--1-------|----------------|
D|--2---1--2------|-4--4-6-2-------|    X2   Chorus 2 (unmuted)
A|44442222--222222|--6--4-4-2222222|
E|--------00000000|5555555500000000|


G|----------------|----------------|
D|2222111122222222|4444444422222222|    X1 Verse 3 (not so muted)
A|4444222222222222|6666444422222222|
E|--------00000000|5555555500000000|


G|-4---2--1-------|----------------|
D|2222111122222222|-4--4-6-2-------|    X1 Verse 3 (not so muted)
A|4444222222222222|6666444422222222|
E|--------00000000|5555555500000000|


G|----------------|----------------|
D|2-2-1-1-6-6-6-6-|4-4-4-4-2-2-2-2-|    X2   Outro (distorted)
A|4-4-2-2-7-7-7-7-|6-6-4-4-2-2-2-2-|
E|----------------|--------0-0-0-0-|