#----------------------------PLEASE NOTE-----------------------------#
# This represents the author's own work and interpretation of the    #
# song. To be used only for private study, scholarship, or research. #
#--------------------------------------------------------------------#

Artist: Phoenix
 Album: Wolfgang Amadeus Phoenix
  Song: 1901 (ver 2)

[http://www.indieguitartabs.com/bands/phoenix/1901_ver_2.html]

Tabbed by: Piotr Ilnicki

These aren't my tabs, I compiled various individual tabs to one full song tab for lead 
and rythym guitars, and lyrics.

Tuning: Standard
Gtr I  Clean
Gtr II  Distortion

INTRO
    Gtr I
||--15-15-15-15-15-15-15-15-|-15-17-17-17-17-17-17-17-|
||o-17-17-17-17-17-17-17-17-|-17-17-17-17-17-17-17-17-|
||--------------------------|-------------------------|
||--------------------------|-------------------------|
||o-------------------------|-------------------------|
||--------------------------|-------------------------|


|-15-15-15-15-15-15-15-15-|-15-15-15-15-15-17-17-17--|
|-17-17-17-17-17-17-17-17-|-17-17-17-17-17-17-17-17--|
|-------------------------|--------------------------|
|-------------------------|--------------------------|
|-------------------------|--------------------------|
|-------------------------|--------------------------|


|-12-12-12-12-12-12-12-12-|-12-15-15-15-15-15-15-15-|
|-13-13-13-13-13-13-13-13-|-13-13-13-13-13-13-13-13-|
|-------------------------|-------------------------|
|-------------------------|-------------------------|
|-------------------------|-------------------------|
|-------------------------|-------------------------|


|-12-12-12-12-12-12-12-12-|-12-12-12-12-12-12-12-12--||
|-13-13-13-13-13-13-13-13-|-13-13-13-13-13-13-13-13-o||
|-------------------------|--------------------------||
|-------------------------|--------------------------||
|-------------------------|-------------------------o||
|-------------------------|--------------------------||


    Gtr I
||--15-15-15-15-15-15-15-15-|-15-17-17-17-17-17-17-17-|
||o-17-17-17-17-17-17-17-17-|-17-17-17-17-17-17-17-17-|
||--------------------------|-------------------------|
||--------------------------|-------------------------|
||o-------------------------|-------------------------|
||--------------------------|-------------------------|
    Gtr II
||---x---x---x---x---x-----|---5---5---5---5---5----|
||--10--10-10--10--10-----|---5---5---5---5---5----|
||---x---x---x---x---x-----|---5---5---5---5---5----|
||--10--10--10--10--10-----|---x---x---x---x---x----|
||---8---8---8---8---8-----|---x---x---x---x---x----|
||---x---x---x---x---x-----|---5---5---5---5---5----|




    Gtr I
|-15-15-15-15-15-15-15-15-|-15-15-15-15-15-17-17-17--|
|-17-17-17-17-17-17-17-17-|-17-17-17-17-17-17-17-17--|
|-------------------------|--------------------------|
|-------------------------|--------------------------|
|-------------------------|--------------------------|
|-------------------------|--------------------------|
   Gtr II
|----x---x---x---x---x-----|---x-------x---x---x----|
|----5---5---5---5---5-----|---5-------5---5---5----|
|----x---x---x---x---x-----|---x-------x---x---x----|
|----5---5---5---5---5-----|---5-------5---5---5----|
|----3---3---3---3---3-----|---x-------x---x---x----|
|----x---x---x---x---x-----|---5-------5---5---5----|




   Gtr I 
|-12-12-12-12-12-12-12-12-|-12-15-15-15-15-15-15-15-|
|-13-13-13-13-13-13-13-13-|-13-13-13-13-13-13-13-13-|
|-------------------------|-------------------------|
|-------------------------|-------------------------|
|-------------------------|-------------------------|
|-------------------------|-------------------------|
   Gtr II
||---x---x---x---x---x-----|---5---5---5---5---5----|
||--10--10-10--10--10-----|---5---5---5---5---5----|
||---x---x---x---x---x-----|---5---5---5---5---5----|
||--10--10--10--10--10-----|---x---x---x---x---x----|
||---8---8---8---8---8-----|---x---x---x---x---x----|
||---x---x---x---x---x-----|---5---5---5---5---5----|

  


   Gtr I
|-12-12-12-12-12-12-12-12-|-12-12-12-12-12-12-12-12--||
|-13-13-13-13-13-13-13-13-|-13-13-13-13-13-13-13-13-o||
|-------------------------|--------------------------||
|-------------------------|--------------------------||
|-------------------------|-------------------------o||
|-------------------------|--------------------------||
   Gtr II
|----x---x---x---x---x-----|---x-------x---x---x----|
|----5---5---5---5---5-----|---5-------5---5---5----|
|----x---x---x---x---x-----|---x-------x---x---x----|
|----5---5---5---5---5-----|---5-------5---5---5----|
|----3---3---3---3---3-----|---x-------x---x---x----|
|----x---x---x---x---x-----|---5-------5---5---5----|

VERSE
    Gtr II
||---x---x---x---x---x-----|---5---5---5---5---5----|
||--10--10-10--10--10-----|---5---5---5---5---5----|
||---x---x---x---x---x-----|---5---5---5---5---5----|
||--10--10--10--10--10-----|---x---x---x---x---x----|
||---8---8---8---8---8-----|---x---x---x---x---x----|
||---x---x---x---x---x-----|---5---5---5---5---5----|
       Counting all different ideas drifting away

   Gtr II
|----x---x---x---x---x-----|---x-------x---x---x----|
|----5---5---5---5---5-----|---5-------5---5---5----|
|----x---x---x---x---x-----|---x-------x---x---x----|
|----5---5---5---5---5-----|---5-------5---5---5----|
|----3---3---3---3---3-----|---x-------x---x---x----|
|----x---x---x---x---x-----|---5-------5---5---5----|


    Gtr II
||---x---x---x---x---x-----|---5---5---5---5---5----|
||--10--10-10--10--10-----|---5---5---5---5---5----|
||---x---x---x---x---x-----|---5---5---5---5---5----|
||--10--10--10--10--10-----|---x---x---x---x---x----|
||---8---8---8---8---8-----|---x---x---x---x---x----|
||---x---x---x---x---x-----|---5---5---5---5---5----|
Past and present, they don't matter, now the future's sorted out

   Gtr II
|----x---x---x---x---x-----|---x-------x---x---x----|
|----5---5---5---5---5-----|---5-------5---5---5----|
|----x---x---x---x---x-----|---x-------x---x---x----|
|----5---5---5---5---5-----|---5-------5---5---5----|
|----3---3---3---3---3-----|---x-------x---x---x----|
|----x---x---x---x---x-----|---5-------5---5---5----|






    Gtr I
||--15-15-15-15-15-15-15-15-|-15-17-17-17-17-17-17-17-|
||o-17-17-17-17-17-17-17-17-|-17-17-17-17-17-17-17-17-|
||--------------------------|-------------------------|
||--------------------------|-------------------------|
||o-------------------------|-------------------------|
||--------------------------|-------------------------|
    Gtr II
||---x---x---x---x---x-----|---5---5---5---5---5----|
||--10--10-10--10--10-----|---5---5---5---5---5----|
||---x---x---x---x---x-----|---5---5---5---5---5----|
||--10--10--10--10--10-----|---x---x---x---x---x----|
||---8---8---8---8---8-----|---x---x---x---x---x----|
||---x---x---x---x---x-----|---5---5---5---5---5----|
Watch her moving in elliptical patterns

    Gtr I
|-15-15-15-15-15-15-15-15-|-15-15-15-15-15-17-17-17--|
|-17-17-17-17-17-17-17-17-|-17-17-17-17-17-17-17-17--|
|-------------------------|--------------------------|
|-------------------------|--------------------------|
|-------------------------|--------------------------|
|-------------------------|--------------------------|
   Gtr II
|----x---x---x---x---x-----|---x-------x---x---x----|
|----5---5---5---5---5-----|---5-------5---5---5----|
|----x---x---x---x---x-----|---x-------x---x---x----|
|----5---5---5---5---5-----|---5-------5---5---5----|
|----3---3---3---3---3-----|---x-------x---x---x----|
|----x---x---x---x---x-----|---5-------5---5---5----|
Think it's not what you say, what you say is way too complicated

   Gtr I 
|-12-12-12-12-12-12-12-12-|-12-15-15-15-15-15-15-15-|
|-13-13-13-13-13-13-13-13-|-13-13-13-13-13-13-13-13-|
|-------------------------|-------------------------|
|-------------------------|-------------------------|
|-------------------------|-------------------------|
|-------------------------|-------------------------|
   Gtr II
||---x---x---x---x---x-----|---5---5---5---5---5----|
||--10--10-10--10--10-----|---5---5---5---5---5----|
||---x---x---x---x---x-----|---5---5---5---5---5----|
||--10--10--10--10--10-----|---x---x---x---x---x----|
||---8---8---8---8---8-----|---x---x---x---x---x----|
||---x---x---x---x---x-----|---5---5---5---5---5----|
For a minute thought I couldn't tell how to fall out
 
   Gtr I
|-12-12-12-12-12-12-12-12-|-12-12-12-12-12-12-12-12--||
|-13-13-13-13-13-13-13-13-|-13-13-13-13-13-13-13-13-o||
|-------------------------|--------------------------||
|-------------------------|--------------------------||
|-------------------------|-------------------------o||
|-------------------------|--------------------------||
   Gtr II
|----x---x---x---x---x-----|---x-------x---x---x----|
|----5---5---5---5---5-----|---5-------5---5---5----|
|----x---x---x---x---x-----|---x-------x---x---x----|
|----5---5---5---5---5-----|---5-------5---5---5----|
|----3---3---3---3---3-----|---x-------x---x---x----|
|----x---x---x---x---x-----|---5-------5---5---5----|



CHORUS

   Gtr I and II

|--------------------------|------------------------|
|--------------------------|------------------------|
|--------------------------|------------------------|
|--------------------------|------------------------|
|--------------------------|------------------------|  
|--------------------------|------------------------|
It's twenty seconds until the last call
|--------------------------|------------------------|
|--------------------------|------------------------|
|--------------------------|------------------------|
|--------------------------|------------------------|
|--------------------------|------------------------|
|--------------------------|------------------------|
You're going, "Hey, hey, hey, hey, hey, hey"
|--------------------------|------------------------|
|--------------------------|------------------------|
|--------------------------|------------------------|
|--------------------------|------------------------|
|--------------------------|------------------------|
|--------------------------|------------------------|
Lie down you know it's easy
|--------------------------|------------------------|
|--------------------------|------------------------|
|--------------------------|------------------------|
|--------------------------|------------------------|
|--------------------------|------------------------|
|--------------------------|------------------------|
Like we did it over summer long
|--------------------------|------------------------|
|--------------------------|------------------------|
|--------------------------|------------------------|
|--------------------------|------------------------|
|--------------------------|------------------------|
|--------------------------|------------------------|
And I'll be anything you ask and more
|--------------------------|------------------------|
|--------------------------|------------------------|
|--------------------------|------------------------|
|--------------------------|------------------------|
|--------------------------|------------------------|
|--------------------------|------------------------|
You're going, "Hey, hey, hey, hey, hey, hey, hey"
|--------------------------|------------------------|
|--------------------------|------------------------|
|--------------------------|------------------------|
|--------------------------|------------------------|
|--------------------------|------------------------|
|--------------------------|------------------------|
It's not a miracle we needed
|--------------------------|------------------------|
|--------------------------|------------------------|
|--------------------------|------------------------|
|--------------------------|------------------------|
|--------------------------|------------------------|
|--------------------------|------------------------|
No, I wouldn't let you think so


    Gtr I
||--15-15-15-15-15-15-15-15-|-15-17-17-17-17-17-17-17-|
||o-17-17-17-17-17-17-17-17-|-17-17-17-17-17-17-17-17-|
||--------------------------|-------------------------|
||--------------------------|-------------------------|
||o-------------------------|-------------------------|
||--------------------------|-------------------------|
    Gtr II
||---x---x---x---x---x-----|---5---5---5---5---5----|
||--10--10-10--10--10-----|---5---5---5---5---5----|
||---x---x---x---x---x-----|---5---5---5---5---5----|
||--10--10--10--10--10-----|---x---x---x---x---x----|
||---8---8---8---8---8-----|---x---x---x---x---x----|
||---x---x---x---x---x-----|---5---5---5---5---5----|
Fold it, fold it, fold it, fold it

    Gtr I
|-15-15-15-15-15-15-15-15-|-15-15-15-15-15-17-17-17--|
|-17-17-17-17-17-17-17-17-|-17-17-17-17-17-17-17-17--|
|-------------------------|--------------------------|
|-------------------------|--------------------------|
|-------------------------|--------------------------|
|-------------------------|--------------------------|
   Gtr II
|----x---x---x---x---x-----|---x-------x---x---x----|
|----5---5---5---5---5-----|---5-------5---5---5----|
|----x---x---x---x---x-----|---x-------x---x---x----|
|----5---5---5---5---5-----|---5-------5---5---5----|
|----3---3---3---3---3-----|---x-------x---x---x----|
|----x---x---x---x---x-----|---5-------5---5---5----|

   Gtr I 
|-12-12-12-12-12-12-12-12-|-12-15-15-15-15-15-15-15-|
|-13-13-13-13-13-13-13-13-|-13-13-13-13-13-13-13-13-|
|-------------------------|-------------------------|
|-------------------------|-------------------------|
|-------------------------|-------------------------|
|-------------------------|-------------------------|
   Gtr II
||---x---x---x---x---x-----|---5---5---5---5---5----|
||--10--10-10--10--10-----|---5---5---5---5---5----|
||---x---x---x---x---x-----|---5---5---5---5---5----|
||--10--10--10--10--10-----|---x---x---x---x---x----|
||---8---8---8---8---8-----|---x---x---x---x---x----|
||---x---x---x---x---x-----|---5---5---5---5---5----|
Fold it, fold it, fold it, fold it

   Gtr I
|-12-12-12-12-12-12-12-12-|-12-12-12-12-12-12-12-12--||
|-13-13-13-13-13-13-13-13-|-13-13-13-13-13-13-13-13-o||
|-------------------------|--------------------------||
|-------------------------|--------------------------||
|-------------------------|-------------------------o||
|-------------------------|--------------------------||
   Gtr II
|----x---x---x---x---x-----|---x-------x---x---x----|
|----5---5---5---5---5-----|---5-------5---5---5----|
|----x---x---x---x---x-----|---x-------x---x---x----|
|----5---5---5---5---5-----|---5-------5---5---5----|
|----3---3---3---3---3-----|---x-------x---x---x----|
|----x---x---x---x---x-----|---5-------5---5---5----|

VERSE 2 
   Gtr II
||---x---x---x---x---x-----|---5---5---5---5---5----|
||--10--10-10--10--10-----|---5---5---5---5---5----|
||---x---x---x---x---x-----|---5---5---5---5---5----|
||--10--10--10--10--10-----|---x---x---x---x---x----|
||---8---8---8---8---8-----|---x---x---x---x---x----|
||---x---x---x---x---x-----|---5---5---5---5---5----|
 Girlfriend, oh your girlfriend is drifting away

   Gtr II
|----x---x---x---x---x-----|---x-------x---x---x----|
|----5---5---5---5---5-----|---5-------5---5---5----|
|----x---x---x---x---x-----|---x-------x---x---x----|
|----5---5---5---5---5-----|---5-------5---5---5----|
|----3---3---3---3---3-----|---x-------x---x---x----|
|----x---x---x---x---x-----|---5-------5---5---5----|


    Gtr II
||---x---x---x---x---x-----|---5---5---5---5---5----|
||--10--10-10--10--10-----|---5---5---5---5---5----|
||---x---x---x---x---x-----|---5---5---5---5---5----|
||--10--10--10--10--10-----|---x---x---x---x---x----|
||---8---8---8---8---8-----|---x---x---x---x---x----|
||---x---x---x---x---x-----|---5---5---5---5---5----|
Past and present, 1855-1901
   Gtr II
|----x---x---x---x---x-----|---x-------x---x---x----|
|----5---5---5---5---5-----|---5-------5---5---5----|
|----x---x---x---x---x-----|---x-------x---x---x----|
|----5---5---5---5---5-----|---5-------5---5---5----|
|----3---3---3---3---3-----|---x-------x---x---x----|
|----x---x---x---x---x-----|---5-------5---5---5----|


    Gtr I
||--15-15-15-15-15-15-15-15-|-15-17-17-17-17-17-17-17-|
||o-17-17-17-17-17-17-17-17-|-17-17-17-17-17-17-17-17-|
||--------------------------|-------------------------|
||--------------------------|-------------------------|
||o-------------------------|-------------------------|
||--------------------------|-------------------------|
    Gtr II
||---x---x---x---x---x-----|---5---5---5---5---5----|
||--10--10-10--10--10-----|---5---5---5---5---5----|
||---x---x---x---x---x-----|---5---5---5---5---5----|
||--10--10--10--10--10-----|---x---x---x---x---x----|
||---8---8---8---8---8-----|---x---x---x---x---x----|
||---x---x---x---x---x-----|---5---5---5---5---5----|
Watch them built up a meteor tower
   
 Gtr I
|-15-15-15-15-15-15-15-15-|-15-15-15-15-15-17-17-17--|
|-17-17-17-17-17-17-17-17-|-17-17-17-17-17-17-17-17--|
|-------------------------|--------------------------|
|-------------------------|--------------------------|
|-------------------------|--------------------------|
|-------------------------|--------------------------|
   Gtr II
|----x---x---x---x---x-----|---x-------x---x---x----|
|----5---5---5---5---5-----|---5-------5---5---5----|
|----x---x---x---x---x-----|---x-------x---x---x----|
|----5---5---5---5---5-----|---5-------5---5---5----|
|----3---3---3---3---3-----|---x-------x---x---x----|
|----x---x---x---x---x-----|---5-------5---5---5----|
Think it's not going to stay anyway, think it's overrated





   Gtr I 
|-12-12-12-12-12-12-12-12-|-12-15-15-15-15-15-15-15-|
|-13-13-13-13-13-13-13-13-|-13-13-13-13-13-13-13-13-|
|-------------------------|-------------------------|
|-------------------------|-------------------------|
|-------------------------|-------------------------|
|-------------------------|-------------------------|
   Gtr II
||---x---x---x---x---x-----|---5---5---5---5---5----|
||--10--10-10--10--10-----|---5---5---5---5---5----|
||---x---x---x---x---x-----|---5---5---5---5---5----|
||--10--10--10--10--10-----|---x---x---x---x---x----|
||---8---8---8---8---8-----|---x---x---x---x---x----|
||---x---x---x---x---x-----|---5---5---5---5---5----|
For a minute thought I couldn't tell how to fall out

   Gtr I
|-12-12-12-12-12-12-12-12-|-12-12-12-12-12-12-12-12--||
|-13-13-13-13-13-13-13-13-|-13-13-13-13-13-13-13-13-o||
|-------------------------|--------------------------||
|-------------------------|--------------------------||
|-------------------------|-------------------------o||
|-------------------------|--------------------------||
   Gtr II
|----x---x---x---x---x-----|---x-------x---x---x----|
|----5---5---5---5---5-----|---5-------5---5---5----|
|----x---x---x---x---x-----|---x-------x---x---x----|
|----5---5---5---5---5-----|---5-------5---5---5----|
|----3---3---3---3---3-----|---x-------x---x---x----|
|----x---x---x---x---x-----|---5-------5---5---5----|

CHORUS

Gtr I and II

|--x-----------------------|---x--------------------|
|--8-----------------------|---8--------------------|
|-10-----------------------|---9--------------------|
|-10----5X-----------------|---9----5X--------------|
|--x-----------------------|---x--------------------|  
|--8-----------------------|---8--------------------|
It's twenty seconds until the last call
|--x-----------------------|---x--------------------|
|--8-----------------------|---8--------------------|
|-10-----------------------|---9--------------------|
|-10----5X-----------------|---9----5X--------------|
|--x-----------------------|---x--------------------|  
|--8-----------------------|---8--------------------|
You're going, "Hey, hey, hey, hey, hey, hey"
|--10---10-10-10---10------|----10---10-10-10---10--|
|--13---13-13-13---13------|----13---13-13-13---13--|
|--10---10-10-10---10------|----10---10-10-10---10--|
|--12---12-12-12---12------|----12---12-12-12---12--|
|--10---10-10-10---10------|----10---10-10-10---10--|
|--10---10-10-10---10------|----10---10-10-10---10--|
Lie down you know it's easy
|--10---10-10-10---10------|----10---10-10-10---10--|
|--13---13-13-13---13------|----13---13-13-13---13--|
|--10---10-10-10---10------|----10---10-10-10---10--|
|--12---12-12-12---12------|----12---12-12-12---12--|
|--10---10-10-10---10------|----10---10-10-10---10--|
|--10---10-10-10---10------|----10---10-10-10---10--|
Like we did it over summer long
|--x-----------------------|---x--------------------|
|--8-----------------------|---8--------------------|
|-10-----------------------|---9--------------------|
|-10----5X-----------------|---9----5X--------------|
|--x-----------------------|---x--------------------|  
|--8-----------------------|---8--------------------|
And I'll be anything you ask and more
|--x-----------------------|---x--------------------|
|--8-----------------------|---8--------------------|
|-10-----------------------|---9--------------------|
|-10----5X-----------------|---9----5X--------------|
|--x-----------------------|---x--------------------|  
|--8-----------------------|---8--------------------|
You're going, "Hey, hey, hey, hey, hey, hey, hey"
|--10---10-10-10---10------|----10---10-10-10---10--|
|--13---13-13-13---13------|----13---13-13-13---13--|
|--10---10-10-10---10------|----10---10-10-10---10--|
|--12---12-12-12---12------|----12---12-12-12---12--|
|--10---10-10-10---10------|----10---10-10-10---10--|
|--10---10-10-10---10------|----10---10-10-10---10--|
It's not a miracle we needed
|--10---10-10-10---10------|----10---10-10-10---10--|
|--13---13-13-13---13------|----13---13-13-13---13--|
|--10---10-10-10---10------|----10---10-10-10---10--|
|--12---12-12-12---12------|----12---12-12-12---12--|
|--10---10-10-10---10------|----10---10-10-10---10--|
|--10---10-10-10---10------|----10---10-10-10---10--|
No, I wouldn't let you think so



****************************
    Gtr I
||--15-15-15-15-15-15-15-15-|-15-17-17-17-17-17-17-17-|
||o-17-17-17-17-17-17-17-17-|-17-17-17-17-17-17-17-17-|
||--------------------------|-------------------------|
||--------------------------|-------------------------|
||o-------------------------|-------------------------|
||--------------------------|-------------------------|
    Gtr II
||---x---x---x---x---x-----|---5---5---5---5---5----|
||--10--10-10--10--10-----|---5---5---5---5---5----|
||---x---x---x---x---x-----|---5---5---5---5---5----|
||--10--10--10--10--10-----|---x---x---x---x---x----|
||---8---8---8---8---8-----|---x---x---x---x---x----|
||---x---x---x---x---x-----|---5---5---5---5---5----|
Fold it, fold it, fold it, fold it

    Gtr I
|-15-15-15-15-15-15-15-15-|-15-15-15-15-15-17-17-17--|
|-17-17-17-17-17-17-17-17-|-17-17-17-17-17-17-17-17--|
|-------------------------|--------------------------|
|-------------------------|--------------------------|
|-------------------------|--------------------------|
|-------------------------|--------------------------|
   Gtr II
|----x---x---x---x---x-----|---x-------x---x---x----|
|----5---5---5---5---5-----|---5-------5---5---5----|
|----x---x---x---x---x-----|---x-------x---x---x----|
|----5---5---5---5---5-----|---5-------5---5---5----|
|----3---3---3---3---3-----|---x-------x---x---x----|
|----x---x---x---x---x-----|---5-------5---5---5----|

   Gtr I 
|-12-12-12-12-12-12-12-12-|-12-15-15-15-15-15-15-15-|
|-13-13-13-13-13-13-13-13-|-13-13-13-13-13-13-13-13-|
|-------------------------|-------------------------|
|-------------------------|-------------------------|
|-------------------------|-------------------------|
|-------------------------|-------------------------|
   Gtr II
||---x---x---x---x---x-----|---5---5---5---5---5----|
||--10--10-10--10--10-----|---5---5---5---5---5----|
||---x---x---x---x---x-----|---5---5---5---5---5----|
||--10--10--10--10--10-----|---x---x---x---x---x----|
||---8---8---8---8---8-----|---x---x---x---x---x----|
||---x---x---x---x---x-----|---5---5---5---5---5----|
Fold it, fold it, fold it, fold it

   Gtr I
|-12-12-12-12-12-12-12-12-|-12-12-12-12-12-12-12-12--||
|-13-13-13-13-13-13-13-13-|-13-13-13-13-13-13-13-13-o||
|-------------------------|--------------------------||
|-------------------------|--------------------------||
|-------------------------|-------------------------o||
|-------------------------|--------------------------||
   Gtr II
|----x---x---x---x---x-----|---x-------x---x---x----|
|----5---5---5---5---5-----|---5-------5---5---5----|
|----x---x---x---x---x-----|---x-------x---x---x----|
|----5---5---5---5---5-----|---5-------5---5---5----|
|----3---3---3---3---3-----|---x-------x---x---x----|
|----x---x---x---x---x-----|---5-------5---5---5----|


Play from *********************** again.




OUTRO

|--x-----------| 
|--8-----------|
|-10-----------|
|-10----4X-----|
|--x-----------| 
|--8-----------|

|--x--------|
|--8--------|
|-10--------|
|--x--3X----|
|--x--------| 
|--x--------|

|--x-----------| 
|--8-----------|
|-10-----------|
|-10----4X-----|
|--x-----------| 
|--8-----------|

ORGANS

{F A G C} 8X and end with F