#----------------------------PLEASE NOTE-----------------------------#
# This represents the author's own work and interpretation of the    #
# song. To be used only for private study, scholarship, or research. #
#--------------------------------------------------------------------#

Artist: Pedro the Lion
 Album: Winners Never Quit
  Song: Slow and Steady Wins the Race

[http://www.indieguitartabs.com/bands/pedro_the_lion/slow_and_steady_wins_the_race.html]

Tabbed by: Clark Wolf (oddmenout4@yahoo.com)

Capo 2

Strumming not defined. Listen for timing.


Verse 1:
  (C)       (G7)(C)                            (F)
E--0----------3--0------------------------------1----------
B--1----------0--1------------------------------1----------
G--0--------0-0--0------------------------------2----------
D--2----0-2---3--2------------------------------3----------
A--3--3----------3------------------------------3----------
E-------------3---------------------------------1----------
All the way to grandma's house, I stayed on the narrow path
F              Gsus G                     C
But my brother wandered off, deep into the woods

         (G7)(C)                            (F)
E----------3--0------------------------------1----------
B----------0--1------------------------------1----------
G--------0-0--0------------------------------2----------
D----0-2---3--2------------------------------3----------
A--3----------3------------------------------3----------
E----------3---------------------------------1----------
Bitten twice by rattle snakes, tangled up in poison oak
F                Gsus      G                 C
He fell down and broke his legs into a great ravine

  (Cm)            (G#)                                    (Cm)
E-------------------------------------------------------------
B-------------------------------------------------------------
G-------------------------------------------------------------
D----0-1-3----------------------------------------------------
A--3---------------6-----5---------5---6---8----5--6-------3--
E------------------4-----4---------4---4---4----4--4-------3--
When I arrived at grandma's house, she had made us tea and cake

   (Cm)              (G#)             (Am)           (G)    (C)
E------------------------------------------------------------0--
B------------------------------------------------------------1--
G------------------------------------------------------------0--
D------------------------------------------------------------2--
A--3------------------6-------5--------3--5---6--3----5------3--
E--3------------------4-------4--------5--5---5--5----3---------
She asked me where my brother was, and I said I don't know and ate


Solo:
E----------1--4--3----1--4--3--3--1--6--------------4--1--
B----------1--4--4----1--4--4--5--1--6--------------4--1--
G--------0-1--5--5----1--5--5--3--1--7--------5--3--5--1--
D----0-2---3--6--5----3--6--5--5--3--8--8--8--5--5--6--3--
A--3-------3--6--3----3--6--3--3--3--8--6--5--3--3--6--3--
E----------1--4-------1--4--------1--6--------------4--1--

E--------------------------------------------------------------
B--------------------------------------------------------------
G------------------------------------0-1--0-----0---0---0------
D----0-1-3-5-----3-1-0---1--3--0-1-3--------1-3---1-------3-0--
A--3-------5--3--3-----3-1-----2-------3--1---3-------1---2----
E----------3---------------------------------------------------

E--------------------------------------------------------------
B--------------------------------------------------------------
G----------0--------------------0------------------------------
D--1-0-1-3-------3-1-0---1--3-----3-1-0-3--1-0---3-1-0---0--0--
A--3---3------3--3-----3-1------2-------3--1---3---1---3-3--2--
E----------3---------------------------------------------3--3--

Verse 1: (Same as Verse 1, except end)
When I get to heaven I'll be greeted warmly
Surrounded by angels, as Jesus takes my hand
I'll receive a mansion on the river Jordan
And a crown of diamonds, for a race well run
I won't ever lock my doors; I will trust my neighbors
Confident that they deserve to be there in heaven, 

  (Am)(C) (Fm)(C)
E--0---0---1---0--
B--1---1---1---1--
G--2---0---1---0--
D--2---2---3---2--
A--0---3---3---3--
E----------1------
   Too¦