#----------------------------PLEASE NOTE-----------------------------#
# This represents the author's own work and interpretation of the    #
# song. To be used only for private study, scholarship, or research. #
#--------------------------------------------------------------------#

Artist: Pedro the Lion
 Album: Achilles Heel
  Song: I Do

[http://www.indieguitartabs.com/bands/pedro_the_lion/i_do.html]

Tabbed by: Hunter MacDermut

Intro:

e|------------------------|------------------------|-------------------|-----------------|
B|-8-------10-------------|-------------7----------|-8-----------------|-----------------|
G|------------------------|------------------------|---------9---------|-----------------|
D|---10-10----10-10-10-10-|-10-10-10-10---10-10-10-|---9-9-9---9-9-9-9-|-9-9-9-9-9-9-9-9-|
A|------------------------|------------------------|-------------------|-----------------|
E|------------------------|------------------------|-------------------|-----------------|

e|-------------------|-----------------|-------------------|-----------------|
B|-8-------7---------|-----------------|-8-----------------|-----------------|
G|-------------------|---------7-------|---------9---------|-----------------|
D|---10-10---7-7-7-7-|-7-7-7-7---7-7-7-|---9-9-9---9-9-9-9-|-9-9-9-9-9-9-9-9-|
A|-------------------|-----------------|-------------------|-----------------|
E|-------------------|-----------------|-------------------|-----------------|

e|------------------------|------------------------|-------------------|-----------------|
B|-8-------10-------------|-------------7----------|-8-----------------|-----------------|
G|------------------------|------------------------|---------9---------|---------9-------|
D|---10-10----10-10-10-10-|-10-10-10-10---10-10-10-|---9-9-9---9-9-9-9-|-9-9-9-9---9-9-9-|
A|------------------------|------------------------|-------------------|-----------------|
E|------------------------|------------------------|-------------------|-----------------|

e|-------------------|-----------------|-------------------|-----------------|
B|-8-------7---------|-----------------|-8-----------------|-----------------|
G|-------------------|---------7-------|---------9---------|-----------------|
D|---10-10---7-7-7-7-|-7-7-7-7---7-7-7-|---9-9-9---9-9-9-9-|-9-9-9-9-9-9-9-9-|
A|-------------------|-----------------|-------------------|-----------------|
E|-------------------|-----------------|-------------------|-----------------|

Verse:

e|-------8---------8---------8------------|-----7-------7-------7---------|
B|----10-----10--------10--------10----10-|---8-----8-------8-------8---8-|
G|-11-----------11--------11--------11----|-9---------9-------9-------9---|
D|----------------------------------------|-------------------------------| x4
A|----------------------------------------|-------------------------------|
E|----------------------------------------|-------------------------------|

And when his tiny head
Emergered from blood and folds of skin
I thought to myself, "If he only knew,
He would climb right back in."

Chorus:

e|-----7-------7-------7---------|-----2-------3-2-----3---|-------2-3-2-0-2-3---|
B|---8-----8-------8-------8-----|---3-----3-------2-----2-|---1-----------------|
G|-7---------7-------7-------7---|-2---------2-------------|-0-------------------|
D|-------------------------------|-------------------------|---------------------|
A|-------------------------------|-------------------------|---------------------|
E|-------------------------------|-------------------------|---------------------|

I do, I do, I do

e|-----7-------7-------7---------|-----2-------3-2-----3---|-------8-------7-----------------|
B|---8-----8-------8-------8-----|---3-----3-------2-----2-|---8-------8-------8---8-----8---|
G|-7---------7-------7-------7---|-2---------2-------------|-9---9-------9-------9---7-9---9-|
D|-------------------------------|-------------------------|---------------------------------|
A|-------------------------------|-------------------------|---------------------------------|
E|-------------------------------|-------------------------|---------------------------------|

I do, I do, I do

e|-------8-------7-----------------|
B|---8-------8-------8---8-----8---|
G|-9---9-------9-------9---7-9---9-|
D|---------------------------------| x2
A|---------------------------------|
E|---------------------------------|

Verse:

e|-------------------------------|-------------------------------|
B|-------------------------------|-------------------------------|
G|-----5-------5-------5---------|-----4-------4-------4---------|
D|---7-----7-------7-------7---7-|---5-----5-------5-------5---5-| x4
A|-9---------9-------9-------9---|-7---------7-------7-------7---|
E|-------------------------------|-------------------------------|

Now that my blushing bride
Has done what she was born to do,
It's time to bury dreams and raise a
Son to live vicariously through

Bridge:

e|-8--------8--------8--------8------|-10--------10--------10--------10--------|
B|-----10-------10-------10-------10-|------10--------10--------10--------10---|
G|-----------------------------------|-----------------------------------------|
D|-----------------------------------|-----------------------------------------|
A|-----------------------------------|-----------------------------------------|
E|-----------------------------------|-----------------------------------------|

The sperm swims for the egg

e|-7---7---7---7---|-8---8---8---8---|
B|---8---8---8---8-|-----------------|
G|-----------------|---9---9---9---9-|
D|-----------------|-----------------|
A|-----------------|-----------------|
E|-----------------|-----------------|

The finger for the ring

e|-8--------8--------8--------8------|-7---7-5-7---7-5-|
B|-----10-------10-------10-------10-|---4---4---4-----|
G|-----------------------------------|-----------------|
D|-----------------------------------|-----------------|
A|-----------------------------------|-----------------|
E|-----------------------------------|-----------------|

If I could take one back, I

e|-8---8---8---8---|-----8------10----8----|
B|---8---5---8---8-|---10----10----10---10-|
G|-----------------|-11----7---------------|
D|-----------------|-----------------------|
A|-----------------|-----------------------|
E|-----------------|-----------------------|

Know what it would be: I

Chorus:

e|-----7-------7-------7---------|-----2-------3-2-----3---|-------2-3-2-0-2-3---|
B|---8-----8-------8-------8---0-|---3-----3-------2-----2-|---1-----------------|
G|-7---------7-------7-------7---|-2---------2-------------|-0-------------------|
D|-------------------------------|-------------------------|---------------------| x2
A|-------------------------------|-------------------------|---------------------|
E|-------------------------------|-------------------------|---------------------|

Do, I do, I do, I do, I do, I do, I

e|-------7-------8-------7---------|-------8-------7-----------7-----|
B|---8-------8-------8-------8---8-|---8-------8-------8---8-------8-|
G|-9---9-------9-------9-------9---|-7---7-------7-------7---7---7---|
D|---------------------------------|---------------------------------|
A|---------------------------------|---------------------------------|
E|---------------------------------|---------------------------------|

Do, I do

e|-------8-------7-----------------|     e|-------8-------7---------|
B|---8-------8-------8---8-----8---|     B|---8-------8-------------|
G|-9---9-------9-------9---7-9-----|     G|-9---9-------9---9-------|
D|---------------------------------| x3  D|-------------------------|
A|---------------------------------|     A|-------------------------|
E|---------------------------------|     E|-------------------------|