#----------------------------PLEASE NOTE-----------------------------#
# This represents the author's own work and interpretation of the    #
# song. To be used only for private study, scholarship, or research. #
#--------------------------------------------------------------------#

Artist: Pedro the Lion
 Album: Achilles Heel
  Song: Bands with Managers

[http://www.indieguitartabs.com/bands/pedro_the_lion/bands_with_managers.html]

Tabbed by: Hunter MacDermut

Verse:

e|-----------------|-----------------|-----------------|-----------------| |
B|-----------------|-----------------|-----------------|-----------------| |
G|-----------------|-----------------|-----------------|-----------------| |
D|-4-4-4-4-4-4-4-4-|-4-4-4-4-4-4-4-4-|-4-4-4-4-4-4-4-4-|-7-7-7-7-7-7-7-7-| |
A|-5-5-5-5-5-5-5-5-|-5-5-5-5-5-5-5-5-|-5-5-5-5-5-5-5-5-|-5-5-5-5-5-5-5-5-| |
E|-5-5-5-5-5-5-5-5-|-4-4-4-4-4-4-4-4-|-3-3-3-3-3-3-3-3-|-5-5-5-5-5-5-5-5-| |
                                                                           |
Bands with managers are going places                                       |
Bands with messy hair and smooth white faces                               | x2
                                                                           |
e|-----------------|-----------------|                                     |
B|-----------------|-----------------|                                     |
G|-4-4-4-4-4-4-4-4-|-4-4-4-4-4-4-4-4-|                                     |
D|-4-4-4-4-4-4-4-4-|-4-4-4-4-4-4-4-4-|                                     |
A|-2-2-2-2-2-2-2-2-|-1-1-1-1-1-1-1-1-|                                     |
E|-----------------|-----------------|                                     |

Chorus:

e|-----------------|-----------------|-----------------|-----------------|
B|-----------------|-----------------|-----------------|-----------------|
G|-2---2---2---2---|-1---1---1---1---|-0---0---0---0---|-----------------|
D|---0---0---0---0-|---0---0---0---0-|---0---0---0---0-|-4---4---4---4---|
A|-----------------|-----------------|-----------------|---5---5---5---5-|
E|-----------------|-----------------|-----------------|-----------------|

But you don't believe when I say that it won't be

e|-----------------|-----------------|-----------------|-----------------|
B|-----------------|-----------------|-----------------|-----------------|
G|-4-4-4-4-4-4-4-4-|-----------------|-----------------|------7----------|
D|-4-4-4-4-4-4-4-4-|-7-7-7-7-7-7-7-7-|-5-5-5-5-5-5-5-5-|-8-8-88----------|
A|-2-2-2-2-2-2-2-2-|-5-5-5-5-5-5-5-5-|-5-5-5-5-5-5-5-5-|-8-8-88----------|
E|-----------------|-5-5-5-5-5-5-5-5-|-3-3-3-3-3-3-3-3-|-6-6-66----------|

Alright

Verse:

*Synthesized chords playing, low volume.

e|-----------------|-----------------|-----------------|-----------------|
B|-----------------|-----------------|-----------------|-----------------|
G|-----------------|-----------------|-----------------|-----------------|
D|-4---------------|-4---------------|-4---------------|-7---------------|
A|-5---------------|-5---------------|-5---------------|-5---------------|
E|-5---------------|-4---------------|-3---------------|-5---------------|

Vans with fifteen passengers are rolling over

e|-----------------|-----------------|
B|-----------------|-----------------|
G|-4-4-4-4-4-4-4-4-|-4-4-4-4-4-4-4-4-|
D|-4-4-4-4-4-4-4-4-|-4-4-4-4-4-4-4-4-|
A|-2-2-2-2-2-2-2-2-|-1-1-1-1-1-1-1-1-|
E|-----------------|-----------------|

                                 But

e|-----------------|-----------------|-----------------|-----------------|
B|-----------------|-----------------|-----------------|-----------------|
G|-----------------|-6-6-6-6-6-6-6-6-|-----------------|-----------------|
D|-4-4-4-4-4-4-4-4-|-4-4-4-4-4-4-4-4-|-5-5-5-5-5-5-5-5-|-7-7-7-7-7-7-7-7-|
A|-5-5-5-5-5-5-5-5-|-4-4-4-4-4-4-4-4-|-5-5-5-5-5-5-5-5-|-5-5-5-5-5-5-5-5-|
E|-5-5-5-5-5-5-5-5-|-----------------|-3-3-3-3-3-3-3-3-|-5-5-5-5-5-5-5-5-|

I trust T. William Walsh and I'm not afraid to

Bridge:

e|-----------------|-----------------|-----------------|-----------------|
B|-----------------|-----------------|-----------------|-----------------|
G|-----------------|-----------------|-----------------|-----------------|
D|-8---8---8---8---|-5---5---5---5---|-3---3---3---3---|-5---5-----0---0-|
A|---5---5---5---5-|---5---5---5---5-|---5---5---5---5-|---5---5-6---6---|
E|-----------------|-----------------|-----------------|-----------------|

Die

e|-----------------|-----------------|-----------------|-----------------|
B|-----------------|-----------------|-----------------|-----------------|
G|-----------------|-----------------|-----------------|-----------------|
D|-8---8---8---8---|-5---5---5---5---|-7---7---7---7---|-8---8-----0---0-|
A|---5---5---5---5-|---5---5---5---5-|---5---5---5---5-|---5---5-6---6---|
E|-----------------|-----------------|-----------------|-----------------|

e|-----------------|-----------------|
B|-----------------|-----------------|
G|-----------------|-----------------|
D|-3---3---3---3---|-5---5---5-5-5-5-|
A|---5---5---5---5-|---5---5-5-5-5-5-|
E|-----------------|-----------------|

                                 But

Chorus:

e|-----------------|-----------------|-----------------|-----------------|
B|-----------------|-----------------|-----------------|-----------------|
G|-----------------|-----------------|-----------------|-----------------|
D|-----4-------4---|-----4-------4---|-----4-------4--4|-4-4-4-4-4-4-4-4-|
A|-----5-------5---|-----5-------5---|-----5-------5--5|-5-5-5-5-5-5-5-5-|
E|-5-5-----5-5-5-5-|-4-4-----4-4-4-4-|-3-3-3-3-3-3-3-3-|-5-5-5-5-5-5-5-5-|

You don't believe when I say that it won't be

e|-----------------|-----------------|-----------------|-----------------|
B|-----------------|-----------------|-----------------|-----------------|
G|-4-4-4-4-4-4-4-4-|-----------------|-----------------|-----------------|
D|-4-4-4-4-4-4-4-4-|-7-7-7-7-7-7-7-7-|-5-5-5-5-5-5-5-5-|-8-8-8-8-8-8-8-8-| x2
A|-2-2-2-2-2-2-2-2-|-5-5-5-5-5-5-5-5-|-5-5-5-5-5-5-5-5-|-8-8-8-8-8-8-8-8-|
E|-----------------|-5-5-5-5-5-5-5-5-|-3-3-3-3-3-3-3-3-|-6-6-6-6-6-6-6-6-|

Alright, alright                                   That it won't be
Alright, alright                                 'Cause it won't be

e|-----------------|-----------------|-----------------|-----------------|-----||
B|-----------------|-----------------|-----------------|-----------------|-----||
G|-4-4-4-4-4-4-4-4-|-----------------|-----------------|-----------------|-----||
D|-4-4-4-4-4-4-4-4-|-7-7-7-7-7-7-7-7-|-8-8-8-8-8-8-8-8-|-5-5-5-5-5-5-5-5-|-4---||
A|-2-2-2-2-2-2-2-2-|-5-5-5-5-5-5-5-5-|-8-8-8-8-8-8-8-8-|-5-5-5-5-5-5-5-5-|-5---||
E|-----------------|-5-5-5-5-5-5-5-5-|-6-6-6-6-6-6-6-6-|-3-3-3-3-3-3-3-3-|-5---||

Alright, alright