Never Leave A Job Half Done Tab

More Pedro the Lion Tabs

Artist: Pedro the Lion
 Album: Winners Never Quit
  Song: Never Leave A Job Half Done

Tabbed by: Hunter MacDermut

Intro:

e|------------------|------------------|
B|------------------|------------------|
G|---6---6---6---6--|---4---4---4---4--|
D|-00-000-000-000-0-|-00-000-000-000-0-| x2
A|------------------|------------------|
E|------------------|------------------|

Verse:

e|------------------|------------------|
B|------------------|------------------|
G|---6---6---6---6--|---4---4---4---4--|
D|-00-000-000-000-0-|-00-000-000-000-0-| x4
A|------------------|------------------|
E|------------------|------------------|

Blood stains on the carpet
Blood stains on my hands
Drag her toward the kitchen
Hide the evidence

Transition:

e|-------------------------------------|-------------------------------------|
B|-------------------------------------|-------------------------------------|
G|-------------------------------------|-------------------------------------|
D|-------------------------------------|-------------------------------------|
A|-9-9-9-9-9-9\5-5/10-10-10-10\9-9-9-9-|-9-9-9-9-9-9\5-5/10-10-10-10\9-9-9-9-|
E|-------------------------------------|-------------------------------------|

e|---------------------------------|---------------------------------|
B|---------------------------------|---------------------------------|
G|---------------------------------|---------------------------------|
D|---------------------------------|---------------------------------|
A|-5-5-5-5-5-5-5-5\4-4-4-4/5-5-5-5-|-5-5-5-5-5-5-5-5-5-5-5-5-5-5-5-5-|
E|---------------------------------|---------------------------------|

Chorus:

e|-------------------------|-----------------|-------------------------|
B|-------------------------|-----------------|-------------------------|
G|-------------------------|-----------------|-------------------------|
D|-12-12-12-12-12-12-12-12-|-9-9-9-9-9-9-9-9-|-14-14-14-14-14-14-14-14-|
A|-12-12-12-12-12-12-12-12-|-9-9-9-9-9-9-9-9-|-14-14-14-14-14-14-14-14-|
E|-10-10-10-10-10-10-10-10-|-7-7-7-7-7-7-7-7-|-12-12-12-12-12-12-12-12-|

Oh the toil a lie can

e|-----------------|-------------------------|-----------------|-----------------|
B|-----------------|-------------------------|-----------------|-----------------|
G|-----------------|-------------------------|-----------------|-----------------|
D|-7-7-7-7-7-7-7-7-|-14-14-14-14-14-14-14-14-|-5-5-5-5-5-5-5-5-|-9-9-9-9-9-9-9-9-|
A|-7-7-7-7-7-7-7-7-|-14-14-14-14-14-14-14-14-|-5-5-5-5-5-5-5-5-|-9-9-9-9-9-9-9-9-|
E|-5-5-5-5-5-5-5-5-|-12-12-12-12-12-12-12-12-|-3-3-3-3-3-3-3-3-|-7-7-7-7-7-7-7-7-|

Bring,               quitters never know

e|-------------------------|-----------------|-------------------------|
B|-------------------------|-----------------|-------------------------|
G|-------------------------|-----------------|-------------------------|
D|-12-12-12-12-12-12-12-12-|-9-9-9-9-9-9-9-9-|-14-14-14-14-14-14-14-14-|
A|-12-12-12-12-12-12-12-12-|-9-9-9-9-9-9-9-9-|-14-14-14-14-14-14-14-14-|
E|-10-10-10-10-10-10-10-10-|-7-7-7-7-7-7-7-7-|-12-12-12-12-12-12-12-12-|

Lies can be the perfect

e|-----------------|-------------------------|-----------------|
B|-----------------|-------------------------|-----------------|
G|-----------------|-------------------------|-------3---------|
D|-7-7-7-7-7-7-7-7-|-14-14-14-14-14-14-14-14-|-5-5-5-5---------|
A|-7-7-7-7-7-7-7-7-|-14-14-14-14-14-14-14-14-|-5-5-5-5---------|
E|-5-5-5-5-5-5-5-5-|-12-12-12-12-12-12-12-12-|-3-3-3-3---------|

Things,              if they never show

Transition:

e|------------------|------------------|
B|------------------|------------------|
G|---6---6---6---6--|---4---4---4---4--|
D|-00-000-000-000-0-|-00-000-000-000-0-|
A|------------------|------------------|
E|------------------|------------------|

Verse:

e|------------------|------------------|
B|------------------|------------------|
G|---6---6---6---6--|---4---4---4---4--|
D|-00-000-000-000-0-|-00-000-000-000-0-| x4
A|------------------|------------------|
E|------------------|------------------|

Crisis posed a question
Just beneath the skin
Virtue in my veins reply,
"Quitters never win."

Bridge:

e|------------------|------------------|------------------|---------------|
B|------------------|------------------|------------------|---------------|
G|-0-0-2-2-3-3-2-2--|-0-0-2-2-0-0------|-0-0-2-2-3-3-2-2--|-0-0-0-0-------|
D|------------------|-------------4-4--|------------------|---------4-----|
A|--5-5-5-5-5-5-5-5-|--5-5-5-5-5-5-5-5-|--5-5-5-5-5-5-5-5-|--5-5-5-5------|
E|------------------|------------------|------------------|---------------|

                                  She almost ruined everything

e|------------------|------------------|-----------------|
B|------------------|------------------|-----------------|
G|-0000222233332222-|-000022220000-----|-0000222332200---|
D|------------------|-------------4444-|--------------44-|
A|------------------|------------------|-----------------|
E|------------------|------------------|-----------------|

Chorus:

e|-------------------------|-----------------|-------------------------|
B|-------------------------|-----------------|-------------------------|
G|-------------------------|-----------------|-------------------------|
D|-12-12-12-12-12-12-12-12-|-9-9-9-9-9-9-9-9-|-14-14-14-14-14-14-14-14-|
A|-12-12-12-12-12-12-12-12-|-9-9-9-9-9-9-9-9-|-14-14-14-14-14-14-14-14-|
E|-10-10-10-10-10-10-10-10-|-7-7-7-7-7-7-7-7-|-12-12-12-12-12-12-12-12-|

Oh the toil a lie can

e|-----------------|-------------------------|-----------------|-----------------|
B|-----------------|-------------------------|-----------------|-----------------|
G|-----------------|-------------------------|-----------------|-----------------|
D|-7-7-7-7-7-7-7-7-|-14-14-14-14-14-14-14-14-|-5-5-5-5-5-5-5-5-|-9-9-9-9-9-9-9-9-|
A|-7-7-7-7-7-7-7-7-|-14-14-14-14-14-14-14-14-|-5-5-5-5-5-5-5-5-|-9-9-9-9-9-9-9-9-|
E|-5-5-5-5-5-5-5-5-|-12-12-12-12-12-12-12-12-|-3-3-3-3-3-3-3-3-|-7-7-7-7-7-7-7-7-|

Bring,               quitters never know

e|-------------------------|-----------------|-------------------------|
B|-------------------------|-----------------|-------------------------|
G|-------------------------|-----------------|-------------------------|
D|-12-12-12-12-12-12-12-12-|-9-9-9-9-9-9-9-9-|-14-14-14-14-14-14-14-14-|
A|-12-12-12-12-12-12-12-12-|-9-9-9-9-9-9-9-9-|-14-14-14-14-14-14-14-14-|
E|-10-10-10-10-10-10-10-10-|-7-7-7-7-7-7-7-7-|-12-12-12-12-12-12-12-12-|

Lies can be the perfect

e|-----------------|-------------------------|-----------------|
B|-----------------|-------------------------|-----------------|
G|-----------------|-------------------------|-----------------|
D|-7-7-7-7-7-7-7-7-|-14-14-14-14-14-14-14-14-|-5-5-5-5-5-5-5-5-|
A|-7-7-7-7-7-7-7-7-|-14-14-14-14-14-14-14-14-|-5-5-5-5-5-5-5-5-|
E|-5-5-5-5-5-5-5-5-|-12-12-12-12-12-12-12-12-|-3-3-3-3-3-3-3-3-|

Things,              if they never show

Coda:

e|-------------------------|-----------------|-------------------------|  |
B|-------------------------|-----------------|-------------------------|  |
G|-------------------------|-----------------|-------------------------|  |
D|-12-12-12-12-12-12-12-12-|-9-9-9-9-9-9-9-9-|-14-14-14-14-14-14-14-14-|  |
A|-12-12-12-12-12-12-12-12-|-9-9-9-9-9-9-9-9-|-14-14-14-14-14-14-14-14-|  |
E|-10-10-10-10-10-10-10-10-|-7-7-7-7-7-7-7-7-|-12-12-12-12-12-12-12-12-|  |
                                                                          |
Ba bada ba ba baba, ba bada                                               |
                                                                          | x2
e|-----------------|-------------------------|-----------------|          |
B|-----------------|-------------------------|-----------------|          |
G|-----------------|-------------------------|-----------------|          |
D|-7-7-7-7-7-7-7-7-|-14-14-14-14-14-14-14-14-|-7-7-7-7-7-7-7-7-|          |
A|-7-7-7-7-7-7-7-7-|-14-14-14-14-14-14-14-14-|-7-7-7-7-7-7-7-7-|          |
E|-5-5-5-5-5-5-5-5-|-12-12-12-12-12-12-12-12-|-5-5-5-5-5-5-5-5-|          |
                                                                          |
Ba, ba bada ba ba                                                         |

e|-------------------------|-----------------|-----------------|---------|
B|-------------------------|-----------------|-----------------|---------|
G|-------------------------|-----------------|-----------------|---------|
D|-12-12-12-12-12-12-12-12-|-7-7-7-7-7-7-7-7-|-5-5-5-5-5-5-5-5-|-12------|
A|-12-12-12-12-12-12-12-12-|-7-7-7-7-7-7-7-7-|-5-5-5-5-5-5-5-5-|-12------|
E|-10-10-10-10-10-10-10-10-|-5-5-5-5-5-5-5-5-|-3-3-3-3-3-3-3-3-|-10------|

And then a couple haphazard slides down the neck as the last notes fade. :)
#----------------------------PLEASE NOTE-----------------------------#
# This represents the author's own work and interpretation of the    #
# song. To be used only for private study, scholarship, or research. #
#--------------------------------------------------------------------#

blog comments powered by Disqus