Arizona Tab

More Pedro the Lion Tabs

Artist: Pedro the Lion
 Album: Achilles Heel
  Song: Arizona

Tabbed by: Hunter MacDermut

Capo on 1

Asus4 - x02230
E*    - xx2330
B7    - xx4242
A/A#  - x12220
Dmaj7 - xx0222

Intro:

e|---------2--------|------------------|---------2--------|-3---2------------|
B|-----3-------3----|-5---3-----3------|-----3-------3----|---------5-3------|
G|-2h4---4----------|---------4-----2--|---4---4----------|---------------4--|
D|------------------|------------------|------------------|------------------|
A|------------------|------------------|------------------|------------------|
E|------------------|------------------|------------------|------------------|

e|---------2--------|-5---3---2-0------|
B|-----3-------3----|------------------|
G|-------4----------|------------------|
D|------------------|------------------|
A|------------------|------------------|
E|------------------|------------------|

Verse:

Bm   A Asus4 A       D           G
  Arizona     curled up with California
Bm                  A                    Em           A  Asus4 A
  Then she tried to hide the whole thing from New Mexico
Bm           A                D             G
  Who knew before he saw them making out in Yuma
E*                   D              A   Asus4 A
  That she had been loving someone new

        G               Em
But California, not California
               F#
How could you?

Bridge:

G Gm D Bm
G Gm D D7
G Gm Bm B7
G Gm D

Synth part played over chords:

e|-----------------------|-------------------------|----------------------|
B|-------3---5-7---5-3---|-------3---5-7-------5-3-|-------3---5-8---7-4--|
G|-4---6-----------------|-4---6-------------------|-4---6----------------|
D|-----------------------|-------------------------|----------------------|
A|-----------------------|-------------------------|----------------------|
E|-----------------------|-------------------------|----------------------|

e|-----------------------|---------------|
B|-7-5---3-0---7-5---3---|---------------|
G|---------------------3-|-----3-2-------|
D|-----------------------|---------------|
A|-----------------------|---------------|
E|-----------------------|---------------|

Verse:

C                           Bm 
 The bully loved her cactus,  the underdog her pine
Em                        A        A/A#
  But she would only love one at a time
Bm        A Asus4 A           D         G
  New Mexico       has always hated California
Bm               A           Em            A     Asus4 A
  And though he knew that Arizona wore the pants

Bm       A               D               G
  He got loaded then he started throwing punches
E*          D     A     F#    G  A  (A7)
  The poor injun never had a chance

Coda:

D   Dmaj7    E*  Bm   Gm    D      A   Asus4 A A7
Scissors cut pa-per, paper covers rock
D    Dmaj7   E*   Bm    Gm  D    A   Asus4 A  G   Gm D
Rock crushes scissors, scissors fall        apart


#----------------------------PLEASE NOTE-----------------------------#
# This represents the author's own work and interpretation of the    #
# song. To be used only for private study, scholarship, or research. #
#--------------------------------------------------------------------#

blog comments powered by Disqus