#----------------------------PLEASE NOTE-----------------------------#
# This represents the author's own work and interpretation of the    #
# song. To be used only for private study, scholarship, or research. #
#--------------------------------------------------------------------#

Artist: Patrick Watson
 Album: Wooden Arms
  Song: Man Like You

[http://www.indieguitartabs.com/bands/patrick_watson/man_like_you.html]

Tabbed by: justin@indieguitartabs.com

Note: tune your B string down a half step.
*=Bb

chord shapes:
e|--------------------------|
*|--0--0--0--0--0--0--0--0--|
G|-12-10--8--7--5--4--3-13--|
D|--------------------------|
A|--------------------------|
E|-11-10--8--6--4--4--3-13--|

Verse:
e|----------------------------------|------------------------|
*|---0----0----0----0---0--0--0--0--|-0--0--0--0--0--0--0--0-|
G|----12---12---10---10--8--8--7--7-|--5--5--5--5--5--5--3--3|
D|----------------------------------|------------------------|
A|----------------------------------|------------------------|
E|-11---11---10---10---8--8--6--6---|4--4--4--4--4--4--3--3--|

|-------------------------|
|--0--0--0--0--0--0--0--0-|
|---5--5--5--5--5--5--5--5|
|-------------------------|
|-------------------------|
|-4--4--4--4--4--4--4--4--|

Chorus:
e|-----------------------------|
*|--0--0--0--0--0--0---0----0--|
G|---4--4--7--7--8--8---10---10|
D|-----------------------------|
A|-----------------------------|
E|-4--4--6--6--8--8--10---10---|

|----------------------------------------|
|--0----0----0----0----0----0----0----0--|
|---12---12---12---12---12---12---12---12|
|----------------------------------------|
|----------------------------------------|
|11---11---11---11---11---11---11---11---|

Post-chorus 
e|------------------------------------------|
*|---0----0----0----0----0----0----0----0---|
G|----12---12---12---12---10---10---13---13-|
D|------------------------------------------| x2
A|------------------------------------------|
E|-11---11---11---11---10---10---13---13----|

|-------------------------|-------------------------|
|--0--0--0--0--0--0--0--0-|--0--0--0--0--0--0--0--0-|
|---3--3--3--3--3--3--3--3|---5--5--5--5--5--5--5--5|
|-------------------------|-------------------------|
|-------------------------|-------------------------|
|-3--3--3--3--3--3--3--3--|-4--4--4--4--4--4--4--4--|


I knew a boy who was swallowed by the sky
by the flashing lights
I knew a man who got lost in the big dark blue
and came out alive

I knew a boy, I knew a man
who looked a lot like you

I knew a time that could stand still inside
never rushing by
I knew a place where you go for your head to explode
into peace of mind

I knew a time, I knew a place
that felt a lot like you
I knew a boy, I knew a man
that looked a lot, lot, like you
oooh oooh oooh oooh...oooh
(just like you)

I knew a friend that could hold on to the flames
keep them from burnin' you
I knew a smile that could see through all of those stones
that the world had thrown

I knew a smile, I knew a friend
who looked a lot like you
I knew a boy, I knew a man
who looked a lot, lot, like you
oooh oooh oooh...

Outro:
e|--------------------------------|
*|-----------------------------0--|
G|-12--10--8--7--5--3--5-----s12--|
D|--------------------------------|
A|--------------------------------|
E|-11--10--8--6--4--3--4-----s11--|