#----------------------------PLEASE NOTE-----------------------------#
# This represents the author's own work and interpretation of the    #
# song. To be used only for private study, scholarship, or research. #
#--------------------------------------------------------------------#

Artist: Patrick Watson
 Album: Close to Paradise
  Song: Giver

[http://www.indieguitartabs.com/bands/patrick_watson/giver.html]

Tabbed by: Antoine Poliquin-Beauregard

Patrick Watson - Giver

To simplify I wrote the main theme as A and B section. The A section is divided in 
two. The "+" signs show where the beats are.

A Section (in 4/4) (the first time you play this, play the first part, and any 
subsequent repetition play the second part)

 E                                Emaj7
|----0-----0-----0-----0-----0---|--------------------------------|
|--9-----9-----9-----9-----9-----|----9-----9---------9-----9-----|
|--------------------------------|6h8---8-----8---6h8---8-----8---|
|9-----9-----9-----9-----9-----9-|--------9-----9---------9-----9-|
|--------------------------------|--------------------------------|
|--------------------------------|--------------------------------|
 +       +       +       +        +       +       +       +       

 E                                Emaj7
|--0-----0-----0-----0-----0-----|--------------------------------|
|9-----9-----9-----9-----9-----9-|----9-----9---------9-----9-----|
|--------------------------------|6h8---8-----8---6h8---8-----8---|
|----9-----9-----9-----9-----9---|--------9-----9---------9-----9-|
|--------------------------------|--------------------------------|
|--------------------------------|--------------------------------|
 +       +       +       +        +       +       +       +       



B Section (in 9/8)

 C#7         F#m7        F            E (this part only played in the intro)
|------------------------------------|----0-----0-----0-----0-----0-----0-----0-----0-|
|--9-----9-----10----10----10----10--|--9-----9-----9-----9-----9-----9-----9-----9---|
|----10----10----11----11----10----10|------------------------------------------------|
|11----11----11----11----11----10----|9-----9-----9-----9-----9-----9-----9-----9-----|
|------------------------------------|------------------------------------------------|
|------------------------------------|------------------------------------------------|
 +           +           +            +           +           +           +


E                                           Emaj7
Is it just me or do you feel a little strange
E                                    Emaj7
Is it just me or do you feel a change
           C#7    F#m7  F      E           Emaj7
And now is it me,          how about you
E                                Emaj7
Isnít strange that timeís all a little fast
E                                 Emaj7
Isnít strange that nothing ever last
           C#7    F#m7  F       E
And now is it me,          how about you
           C#7    F#m7  F      E
Well now is it me,        how about you

CHORUS:
E          C#m7
Donít be a fool
              D#7
Well donít be afraid
                 F#m7     B7        E7
Nothingís really ever supposed to last
E           C#m7
Donít be a fool
               D#7
Well donít be afraid
           F#m7     B7       E7
Everybody needs to meet the end

E                                    Emaj7
Isnít it fun at the very edge of the world
E                                       Emaj7
Where talk is like walking on broken glass
E                                          Emaj7
No need to threat Iím in the same hands as you
E                                              Emaj7
One of these days Iím gonna meet my matchmaker too

(play CHORUS again)

Over these lyrics :
G#m7 - D#7/G - F#m7 - B7 - E7

Oh that is why
Oh that is why I feel I feel so alive
At the edge of the world
Well no is it me
How about you