#----------------------------PLEASE NOTE-----------------------------#
# This represents the author's own work and interpretation of the    #
# song. To be used only for private study, scholarship, or research. #
#--------------------------------------------------------------------#

Artist: Patrick Watson
 Album: Wooden Arms
  Song: Fireweed

[http://www.indieguitartabs.com/bands/patrick_watson/fireweed.html]

Tabbed by: justin@indieguitartabs.com

Note: see picking patterns below

(intro)
E  D#m  B    G#m
E  D#m  G#m  F#

(verse I)
E                           D#m
  After all the flames in the morning
B                     G#m
  The quiet ashes fell for hours and hours
E          D#m
  In the morning rise
G#m                 F#
  Oh we planted our skin
                     F
  Like a seed in the ground

F (repeat)

(verse II)
C#m  A  F#m

D                        C#m
So we dug ourselves a hole
                     F#m
And planted all our skin
                     E
Like a seed in the ground
             D   C#m  A
To grow again

F#m                    D  C#m  F#m
Where the fireweeds grow
E                      D  C#m  A
Where the fireweeds grow
F#m                    D  C#m  F#m  E (end strum)
Where the fireweeds grow

(intro, verse I)
E  D#m  B    G#m
E  D#m  G#m  F#

   E                     D#m
e|-----------------|   |-----------------|
B|---------9-------|   |---------7-------|
G|-----9-----9---9-|   |-----8-----8---8-|
D|---9---9-----9---|x2 |---8---8-----8---|x2
A|-7---------------|   |-6---------------|
E|-----------------|   |-----------------|

   B                     G#m
e|-----------------|   |-----------------|
B|---------7-------|   |---------4-------|
G|-----8-----8---8-|   |-----4-----4---4-|
D|---9---9-----9---|x2 |---6---6-----6---|x2
A|-----------------|   |-----------------|
E|-7---------------|   |-4---------------|

   E                     D#m
e|-----------------|   |-----------------|
B|---------9-------|   |---------7-------|
G|-----9-----9---9-|   |-----8-----8---8-|
D|---9---9-----9---|x2 |---8---8-----8---|x2
A|-7---------------|   |-6---------------|
E|-----------------|   |-----------------|

   G#m                   F#
e|-----------------|   |-----------------|
B|---------4-------|   |---------2-------|
G|-----4-----4---4-|   |-----3-----3---3-|
D|---6---6-----6---|x2 |---4---4-----4---|x2
A|-----------------|   |-----------------|
E|-4---------------|   |-2---------------|

(verse II)

(D) C#m  A    F#m
 D  C#m  F#m  E

   C#m                   A
e|-----------------|   |-----------------|
B|---------5-------|   |---------5-------|
G|-----6-----6---6-|   |-----6-----6---6-|
D|---6---6-----6---|x2 |---7---7-----7---|x2
A|-4---------------|   |-----------------|
E|-----------------|   |-5---------------|

   F#m
e|-----------------|
B|---------2-------|
G|-----2-----2---2-|
D|---4---4-----4---|x2
A|-----------------|
E|-2---------------|

   D                     C#m
e|-----------------|   |-----------------|
B|---------7-------|   |---------5-------|
G|-----7-----7---7-|   |-----6-----6---6-|
D|---7---7-----7---|x2 |---6---6-----6---|x2
A|-5---------------|   |-4---------------|
E|-----------------|   |-----------------|

   F#m                   E
e|-----------------|   |-----------------|
B|---------2-------|   |---------0-------|
G|-----2-----2---2-|   |-----1-----1---1-|
D|---4---4-----4---|x2 |---2---2-----2---|x2
A|-----------------|   |-----------------|
E|-2---------------|   |-0---------------|