As The World Turned Out Tab

More Parlour Steps Tabs

Artist: Parlour Steps
 Album: The Hidden Names
  Song: As The World Turned Out

Tabbed by: mutajen

G#7    464544
E7     020100
E13    020120

intro riff: 
--5-5-5-5-4-4----------------------5-5-5-5-7-7-4-4--------------------
--5-5-5-5-5-5-7-7------5-----4-----5-5-5-5-5-5-5-5-------5-----4------
--------------9-9----6--6--6--6------------------------6--6--6--6-----
----------------------------------------------------------------------
------------------4---------------------------------4-----------------
----------------------------------------------------------------------

(continue over verse)

a most strange funny feeling
		
temple follows internal beating

D 		       G#7    A
our thoughts do bloom, unimpeded

intro riff x2
		
it’s difficult for you and me to

kill computer and tv too
D	    G#7 	A
the vacuous news cloud peddler
D		    C#		   D
escape the chair in front of that computer

chorus:
A 
it wasn’t what we fought about
F#m
the reason for the scream and shout
Bm				             D
as the world turned out, as the world turned out
A
it wasn’t what we cared about
F#m
 this isn’t what the tale’s about
Bm					     D
as the world turned out, as the world turned out

Bm				D
get your story fed over the media shrew
Bm			 E7
celebrity meltdown, kill romantic
    Bm		       D
we might just start to think we’re good enough

intro riff 

useless words we find amusing 

just stronger words and stronger meanings
D		      G#7	  A
are you happy now? by what you’ve not done
D			    C#	    D
sometimes doing nothing can be more fun

chorus

Bm			D	
too much time spent killing our blues
Bm						E7
we’re making them worse now with the pills and the blues
Bm			D	
we might just start to think we’re good enough

intro riff 

D G# D G# A  x2 over solo:
-5-2---2-5-4--4---5-2---2-5-4---4-5-----10------10-8--8----10------10-8-8-9---
-----3----------------3-------------------10--10-----9--9----10--10----9------
-------------5--5-------------5-------------11-----------------11-------------
------------------------------------------------------------------------------
------------------------------------------------------------------------------
------------------------------------------------------------------------------


A F#m Bm D
as the world turned out, as the world turned out x2

Bm		    D	
too much time spent killing our blues
Bm				     E7
we’re making them worse now with the pills and the blues
Bm			  D		     Bm 		E13		
we might just start to think we’re good, we might just start to think we’re cruel 
A
enough
#----------------------------PLEASE NOTE-----------------------------#
# This represents the author's own work and interpretation of the    #
# song. To be used only for private study, scholarship, or research. #
#--------------------------------------------------------------------#

blog comments powered by Disqus