#----------------------------PLEASE NOTE-----------------------------#
# This represents the author's own work and interpretation of the    #
# song. To be used only for private study, scholarship, or research. #
#--------------------------------------------------------------------#

Artist: Pants Yell!
 Album: Received Pronunciation 
  Song: Someone Loves You

[http://www.indieguitartabs.com/bands/pants_yell/someone_loves_you.html]

Tabbed by: spencer 

G#
each morning when you wake up
think of him and reach up
       C#                  Bbm
to the shelf that you once built
     G#
on the wall near the closet
C#             Bbm
I once heard you say
      G#                 Fm
"I think of him but it's okay
   C#             Bbm                G#
I keep busy and I don't fall to pieces"

when you take lunch in the break room,
at ten past, or at noon
they can tell by his shoes:
your boyfriend's an asshole.
I heard you, you'd say,
"keep me happy I'll be okay"
if you miss me
I promise, I'll miss you!

 Bbm
but it's true, it's true, it's true:
G#
someone loves you
 Bbm
yes it's true, someone loves you
solo 

Bbm
but it's true it's true it's true 
G#
someone loves you
 Bbm
yes it's true, it's true, it's true someone loves you

C#           Bbm
he won't be kind
C#                   Bbm
he won't wait up when you're behind
C#          
he might stay 
 Bbm
but he will leave in the morning

la-da-da dum da-da da la-da-da da da-da dum 




first solo
|---------------------------------------------------------------
|--9-9-9-------------------9-9-9--------------------------------
|--------10-10-10----------------10-10-10-----------------------
|-----------------10-10-10----------------10-10-10-11-1011--11--
|---------------------------------------------------------------
|---------------------------------------------------------------

|---------------------------------------------------------------
|---------------------------------------------------------------
|---------------------------------------------------------------
|--11-11/13--11\10--8-10-10-------------------------------------
|---------------------------------------------------------------
|---------------------------------------------------------------
|---------------------------------------------------------------
repeat and end on the 6th fret of the 4th string

outro solo
|---------------------------------------------------------------
|--16-16-16-13-------13-16-16-16-13-------13-16-16-16-13-------
|--------------15-15----------------15-15----------------15-15--
|---------------------------------------------------------------
|---------------------------------------------------------------
|---------------------------------------------------------------

|---------------------------------------------------------------
|--13-----13----------------------------------------------------
|---------------------------------------------------------------
|---------------------------------------------------------------
|---------------------------------------------------------------
|---------------------------------------------------------------