Windy Tab

More Page France Tabs

Artist: Page France
 Album: Hello, Dear Wind
  Song: Windy

Tabbed by: Jeremy Latimer (jeremydavidlatimer [at] gmail [dot] com)

 FM9 (F)  C/G (C)   DM11 (D)

-0---------0---------0---------------- 
-6---------1---------3----------------
-0---------0---------0----------------
-7---------2---------4----------------
-8---------3---------5----------------
-8---------3---------5---------------- 

F C x3

F C D 

F            C

I believe in windy days when

Everything gets blown away oh 
Please let me be blown away I  
Promise you I'm not afraid 

F C

F C D 

F             C

I will sing a circus song 
About the birds and lion hearts 
But please if I forget to start 
Remind me who I am and what you are 

F C F

 
C                                    F

'Cause when our eyes close we're the same 
'Cause when our eyes close we're the same 

C 

F            C

I believe in kings and queens 
And everything stuck in between 
But please if you must take a peek 
Don't spoil for me my mystery 

F C x5

F C D 
 

---------------------------------------------------------------- 
 

Keyboard 1 (11 E. Organ2) 

Intro/ After First Verse/ Outro

This is just the basic melody 

1   2   3   |   1   2   3   |   1   2   3   |   1   2   3 

Bb4 G5 F5 |   Bb4 Eb5 D5  |   Bb4 G5  F5  |   Bb4 Eb5 D5 
 

1   2   3   |   1   2   3   |   1   2   3   |   1   &   2  &   3 

Bb4 G5  F5  |   Bb4 Eb5 D5  |   Bb4 G5  F5  |   Bb4 Eb5 D5 Bb4 C5 
 

x4 (last time skip measure 7) 
 

---------------------------------------------------------------- 
 

Keyboard 2 (97 Vibes) 
 

Verse 2 

Chord: D5 & G5

Chord: Bb5 & D6

Notes: G5 D6       x4 
 

Verse 3 

Chord: D5 & G5

Chord: Bb5 & D6

Notes: G5 D6       x2 
 

---------------------------------------------------------------- 
 

Bass 

Intro/After First Verse/ Outro 

  1   2   3   4      1    2    3    4 
G-------------------------------------------
D------------------------1-1--1-1--1-1--1-1-
A--1-1--1-1--1-1--1-1-----------------------
E-------------------------------------------
#----------------------------PLEASE NOTE-----------------------------#
# This represents the author's own work and interpretation of the    #
# song. To be used only for private study, scholarship, or research. #
#--------------------------------------------------------------------#

blog comments powered by Disqus