Trampoline Tab

More Page France Tabs

Artist: Page France
 Album: Hello, Dear Wind
  Song: Trampoline

Tabbed by: Jeremy Latimer (jeremydavidlatimer [at] gmail [dot] com)

Capo 4 

 C  Em Fmaj7    G   Fmaj7*  G*
-0---0---0------3---0-------3----
-1---0---1------0---1-------3----
-0---0---2------0---2-------0----
-2---2---3------0---3-------0----
-3---2---3------2---0-------2----
-3---0---1------3-----------3---- 

C                         Em 
Hey, hey, hey, you on the trampoline 
          Fmaj7

Trying to see everything 
C                           Em

Hey, hey, hey, sweet little Cherubim 
               Fmaj7

Where has your papa been? 
               C           G

You've got the keys to his chariot 
      Fmaj7

And I bet it looks hilarious 
To watch it drag the terriers

    C 
And all the bugs that fair the earth 
Through all the dams and barriers 

Fmaj7

Turn the vessel upside down 
Turn the vessel upside down 

C

Let us swim or let us drown 
I am lost but I have found 
    Fmaj7                 C      G*

You burn right through my palms 
    Fmaj7                 C      Fmaj7*  G*

You burn right through my palms 

C                         Em 
Hey, hey, hey, you on the trampoline 
         Fmaj7

Up above everything 
C                           Em

Hey, hey, hey, sweet little Cherubim 
           Fmaj7

Wanting to be let in 
 

   C                G

Be careful what you ask for 
           Fmaj7               C      G

Because it burns right up your walls 
   Fmaj7               C    Fmaj7*    G*

It burns right up your walls 

      Fmaj7          C

And I bet it looks hilarious 
   Fmaj7             C

To watch it drag the terriers 
    Fmaj7             C

And all the bugs that fair the earth 
        Fmaj7            C

Through all the dams and barriers 
Fmaj7           C

Turn the vessel upside down 
Fmaj7           C

Turn the vessel upside down 
Fmaj7          C

Let us swim or let us drown 
Fmaj7         C

I am lost but I have found 

    Fmaj7      C       Fmaj7     C

    Burn right down my walls 
You burn right down my walls 
You burn right down my walls 
You burn right down my walls 

    Fmaj7      C       Fmaj7     C  x2 
 

------------------------------------------------------------------ 
Guitar 2 

Burn right through my palms/walls
----------------------------------------------------------
-1----------------------1---------------------------------
---2-0-2------------------2-0-2---------------------------
---------2-----2/3/5------------2-----2/3/5---3-2-0-0-----
----------------------------------------------------------
---------------------------------------------------------- 

Outro

-0---0-0-0-0--------------------0-0-0-0---------0-3-0-----
-1---1-1-1-1---3-0-3-0----0---1-1-1-1-1-----1-3-------3---
-2---2-2-3-3------------2-------2-2-2-2---2---------------
-3---3-3-3-3--------------------3-3-3-3-------------------
-3---3-3-3-3--------------------3-3-3-3-------------------
---------------------------------------------------------- 

-0---0-0-0-0--------------------0-0-0-0-------------------
-1---1-1-1-1---3-0-3-0----0---1-1-1-1-1-------------------
-2---2-2-3-3------------2-------2-2-2-2---0---------------
-3---3-3-3-3--------------------3-3-3-3-------------------
-3---3-3-3-3--------------------3-3-3-3-------------------
---------------------------------------------------------- 
 

------------------------------------------------------------------- 
Keyboard (16 Reed Organ)

C5 = middle C 

Second Chorus/ Outro 

E4 B3 x4 

C#4 D#4 E4 B3 x8
#----------------------------PLEASE NOTE-----------------------------#
# This represents the author's own work and interpretation of the    #
# song. To be used only for private study, scholarship, or research. #
#--------------------------------------------------------------------#

blog comments powered by Disqus