#----------------------------PLEASE NOTE-----------------------------#
# This represents the author's own work and interpretation of the    #
# song. To be used only for private study, scholarship, or research. #
#--------------------------------------------------------------------#

Artist: Page France
 Album: Hello, Dear Wind
  Song: Goodness

[http://www.indieguitartabs.com/bands/page_france/goodness.html]

Tabbed by: Jeremy Latimer (jeremydavidlatimer [at] gmail [dot] com)

Capo 2 

 E   Asus4 B   G#m A
-0---0-----2---4---0---
-0---4-----4---4---2---
-1---6-----4---6---2---
-2---7-----4---6---2---
-2---0-----2---4---0---
-0---------2---4---0--- 

E 

E

Angel, way before there was goodness 
                     Asus4

Way before there was sadness 

You were just like one of us 
                    E

You were stuck here among us 

You were one time a killer 
               Asus4

An untrustable stealer 

An unswayable doubter 
               E

So don't be so hard on us 

Asus4 

E 
Angel, way before there was darkness 
                     Asus4

Way before there was lightness 

You were an in-betweener 
                    E

You were riding the dog fence 

You were no more and no less 
                     Asus4

You were no more and no less 

You were just like one of us 
                    E

So don't be so hard on us 

Asus4 E Asus4 B 

E           G#m 
Way before, We took your arms 
A           B

Way before, We played the harp 
E           G#m

You were so in-between 
A

Oh dear, little bit believer 
B

I'm looking for a leader 

E           G#m

Now, Way before, We took your arms 
A           B

Way before, We played the harp

E           G#m

You were so in-between 
A

Oh dear, little bit believer 
B

I'm here looking for a leader 

E           G#m

Now, Way before, We took your arms 
A           B

Way before, We played the harp 
 

---------------------------------------------------------------------------- 
Mandolin (for guitar Capo 2)

After first and second verse 

         x2

-0-0-5-4----0-0-0-2-4---5-4-----------
-0-0-0-0----2-4-5-0-0-----------------
-4-4-4-4----4-4-4-4-4-----------------
--------------------------------------
--------------------------------------
-------------------------------------- 
 

---------------------------------------------------------------------------- 
Guitar 2 (Capo 4)

Outro x5 
---------------0-|-----------------|-----------------|---------------------
-0---0---0-2-4---|-4---4---4-5-4-2-|-2---2---2---2---|---4---4-0h2p0h2-0---
---1---1---------|---4---4---------|---2---2---2---2-|-4---4-------------1-
-----------------|-----------------|-----------------|---------------------
-----------------|-----------------|-----------------|---------------------
-----------------|-----------------|-----------------|--------------------- 
 

---------------------------------------------------------------------------- 
Keyboard/Bells

C4 = middle C 

Outro 

F#6 E#6 D#6 C#6 B5 A#5 G#5 F#5

E#5 F#5 G#5 A#5 B5 C#6 D#6 C#6

F#6 E#6 D#6 C#6 B5 A#5 G#5 F#5

G#5 A#5 B5 C#6 D#6-E#6 D#6-E#6 F#6 E#6