#----------------------------PLEASE NOTE-----------------------------#
# This represents the author's own work and interpretation of the    #
# song. To be used only for private study, scholarship, or research. #
#--------------------------------------------------------------------#

Artist: Page France
 Album: Hello, Dear Wind
  Song: Glue

[http://www.indieguitartabs.com/bands/page_france/glue.html]

Tabbed by: Jeremy Latimer (jl89795 [at] salisbury [dot] edu)

Pattern I

Guitar 1 (capo 4)

E

---000000---000000---000000---000000---
---000000---000000---000000---000000---
-1-111111---111111---111111---111111---
-2-222222-2-222222-2-222222-2-222222---
----------4-444444-2-222222-2-222222---
--------------------------------------- 

Guitar 2    Guitar 2 (capo 4)

Pattern II    Pattern III

E     E
---------------------------|--------------------------
---00h2p0--------0----0---|--0-0--0-0--0-0--0-0------
--1--------2-1---1----1----|---1----1----1------------
-2--------------2----2-----|--------------------------
---------------------------|--------------------------
---------------------------|-------------------------- 

I and II x4 

I 
Oh dear soul, We gather in the wind 
I

Clap your hands, it's all just like they said 
I

And how good it is to be with you again 
I

Clap your hands, it's better than they said 

I x2

 
Oh dear soul, We're caught up in the trees 
Look at me and tell me what you see 
Praise to you, praise to me

Oh dear soul, You blow just like the leaves

 
And they glued us in forever 
Just like they said they'd do 
So we will stick together 
Praise to me, praise to you 

I and III X4 

Oh dear soul, I owe you to the breeze 
Take my hand, There between your teeth 
And hold on hard, you don't need to speak 
Praise to you, for giving praise to weak 

I and II 
Praise to you, for giving praise to weak 
Praise to you, for giving praise to weak 
Praise to you, for giving praise to weak 
Praise to you, for giving praise to weak 
 

--------------------------------------------------------------------- 
 

Keyboard (15 Pipe Organ):

C4 = middle C 

Intro:

G4 Ab4 Bb4 C5

G4 Ab4 Bb4 ~

G4 Ab4 Bb4 C5

Bb4 Ab4 G4 Bb4 
 

--------------------------------------------------------------------- 
Bass 

Verse                       Interlude
---------------------------|-------------------|
---------------------------|-------------------|
---------------------------|-------------------|
---------------------------|---------------8-6-|
-------------6---8-6-------|--------6-8-6------|
-4---8-6---8---------------|-4--6-8------------|