Jesus Tab

More Page France Tabs

Artist: Page France
 Album: Hello, Dear Wind
  Song: Jesus

Tabbed by: Jeremy Latimer (jeremydavidlatimer [at] gmail [dot] com)


Capo 2 

  E  Amaj7
|-0--0----
|-0--2----
|-1--1----
|-2--2----
|-2--0----
|-0--0---- 

Intro: E, E, Amaj7, Amaj7 x2, then 

  E        Amaj7    E        Amaj7
|-2-0-0-0--2-0-0-0--2-0-0-0--2-0-4---
|-0-0-4-2--2-2-4-2--0-0-4-2--2-2-2---
|-1-1-1-1--1-1-1-1--1-1-1-1--1-1-1---
|-2-2-2-2--2-2-2-2--2-2-2-2--2-2-2---
|-2-2-2-2--0-0-0-0--2-2-2-2--0-0-0---
|-0-0-0-0--0-0-0-0--0-0-0-0--0-0-0--- 

E
I will sing a song to you 
    A
And you will shake the ground for me 
        E
And the birds and bees and old fruit trees 
     A
Will spit out songs like gushing streams 
    E
And Jesus will come through the ground so dirty 
     A
With worms in his hair and a hand so sturdy 
   E
To call us his magic we call him worthy 
A
Jesus came up through the ground do dirty 

E 

E

I will sing a song for to you 
And you will stomp your feet for me 
And the bears and bees and banana trees 
Will play kazoos and tambourines 
And Jesus will dance while we drink his wine 
With soldiers and thieves and a sword in his side 
And we will be joy and we will be right 
Jesus will dance while we drink his wine 

E
La La La La, La La La La

A
La La La La, La La La La  x2 

 
Jesus will come through the ground so dirty 
With worms in his hair and a hand so sturdy 
To call us his magic we call him worthy 
Jesus came up through the ground so dirty 
Jesus came up through the ground so dirty 
Jesus came up through the ground so dirty 
Jesus came up through the ground so dirty 

Second intro part again, end on E

-------------------------------------------------------------- 
 

Iím not 100% sure about these parts, but it sounds close 
 

-------------------------------------------------------------- 
 

Keyboard (16 Reed Organ)

C4 = middle C 

F#maj: F# A# C#   Bmaj7: B D# F# A# 
 

Left hand (Chords): F#maj: C#3 F#3 C#4

                    Bmaj7:    F#3 A#3 D#4        x4 
 

On third time add: 

Right hand (Notes): F#maj: G#4 F#4 E#4 D#4

                    Bmaj7: A#4 
 

-------------------------------------------------------------- 
 

Guitar 2 (Capo 2)

(enter on second verse) 

1 & 2 & 3 & 4 & 1 & 2 & 3 & 4 & 1 & 2 & 3 & 4 & 1 & 2 & 3 & 4 &
-----0-------0--|----0-----0----|----0-------0--|----0-------0------
---2-------2----|--2-----2---4--|--0-------0----|--0-----0-2-5------
-4-------4------|4--------------|1-------1------|1------------------
----------------|---------------|---------------|-------------------
----------------|---------------|---------------|-------------------
----------------|---------------|---------------|------------------- 
 

-------------------------------------------------------------- 
Bass

(enter on last stanza) 

                                   x2 
G---------|--------|--------|--------|-------
D---------|--------|--------|------44|-------
A-44444444|44444444|66666666|666666--|4------
E---------|--------|--------|--------|------- 
 

#----------------------------PLEASE NOTE-----------------------------#
# This represents the author's own work and interpretation of the    #
# song. To be used only for private study, scholarship, or research. #
#--------------------------------------------------------------------#

blog comments powered by Disqus