Grass Tab

More Page France Tabs

Artist: Page France
 Album: Hello, Dear Wind
  Song: Grass

Tabbed by: Jeremy Latimer (jeremydavidlatimer [at] gmail [dot] com)

 Fmaj7 C   Gadd6
-0-----0---0-----
-1-----1---3-----
-2-----0---4-----
-3-----2---5-----
-3-----3---5-----
-1-----3---3----- 
 

Fmaj7     C        Fmaj7    C 
Blue eyes when the wind was done  
You were lying like a soldier 
In the grass, in the grass 
Like the war was over 
Blue eyes when you took a breath 
It was heavy on my shoulder 
Clap your hands, clap your hands 
It looks like the worst is over 

Gadd6 

Fmaj7     C        Fmaj7    C 
Blue eyes when the wind was here 
You were blown just like a feather 
In the trees, in the trees 
You were caught inside forever 
Blue eyes when you hold your breath 
I can breath in deeper 
Clap your hands, clap your hands 
The grass doesn't get no greener 

Gadd6 x2 

Fmaj7     C        Fmaj7    C 
Blue eyes when the wind was done 
You were carried on my shoulder 
Praise the land, praise the land 
And all of its placeholders 

(Praise the land, praise the land

And all of its placeholders) 
 

------------------------------------------------------------------

Guitar 2
                                                         x2
-12-8-12-8-12-8-12-8------8-10-12------8-10-12-----8-12-8-----
----------------------12-----------12-----------12---------12-
--------------------------------------------------------------
--------------------------------------------------------------
--------------------------------------------------------------
#----------------------------PLEASE NOTE-----------------------------#
# This represents the author's own work and interpretation of the    #
# song. To be used only for private study, scholarship, or research. #
#--------------------------------------------------------------------#

blog comments powered by Disqus