Feather Tab

More Page France Tabs

Artist: Page France
 Album: Hello, Dear Wind
  Song: Feather

Tabbed by: Jeremy Latimer (jeremydavidlatimer [at] gmail [dot] com)

Capo 2 

Guitar 1

E

1 & 2 & 3 & 4 &   1 & 2 & 3 & 4 &
-----0-------0---|-----0-------0---|
-----0-------0---|-----0-------0---|
---1---1---1---1-|---1---1---1---1-|
-2-------2-------|-2-------2-------|
-----------------|-----------------|
-----------------|-----------------| 

A
1 & 2 & 3 & 4 &   1 & 2 & 3 & 4 &
-----0-------0---|-----0-------0---|
-----2-------2---|-----2-------2---|
---2---2---2---2-|---2---2---2---2-|
-2-------2-------|-2-------2-------|
-----------------|-----------------|
-----------------|-----------------| 
 

E A x2 

E

                   A 
I am blowing for a trumpet 
            E

Hallelujah 
                           A

You stood too close to the sunset 
                           E

And it finally outgrew ya 
                        A

So now I paint you on my doorpost 
                        E

Like I knew you 
                       A

I make all of the right noises 
                               E

But they never make it to you 

A E 

                  A 
I'm as heavy as a feather 
                  E

Hallelujah 
                         A

You're a confused little soldier 
                                      E

And the bullets go right through ya 
                        A

So now I march you to a tin pan 
                        E

Through the alley 
                     A

So the death angel understands  
                                   E

That I'm gonna take you with me 
              A                    E

And we will become a happy ending 
              A                    E

And we will become a happy ending 

A E A E

                     A

I am sinking for the sunset 
                     E

Hallelujah 
                             A

You've been deafened by these trumpets 
                               E

But my love I'll listen for ya 
                        A

So I can paint you on my doorpost 
                   E

Like I knew you 
                       A

I make all of the right noises 
                                      E

But my love they go right through you 
              A                       E

And we will become a happy ending 
              A                       E

And we will become a happy ending 
              A                       E

And we will become a happy ending 
              A                       E

And we will become a happy ending 
              A                       E

And we will become a happy ending 

A E A E A E A E 

           A

We will rejoice 
           E

Hallelujah 
           A

We will rejoice 
           E

Hallelujah 
          A

We will rejoice 
           E

Hallelujah 
           A

We will rejoice 
           E

Hallelujah

           A 

           E

Hallelujah 

A E 
 
-----------------------------------------------------
Guitar 2

(Capo 2) 

E
1 & 2 & 3 & 4 &   1 & 2 & 3 & 4 &
-----------------|-----------------|
-----------------|-----------------|
-----------------|-----------------|
-2---2---2---2---|-2---2---2---2---|
-2---2---2---2---|-2---2---2---2---|
-----------------|-----------------| 

A
1 & 2 & 3 & 4 &   1 & 2 & 3 & 4 &
-----------------|-----------------|
-----------------|-----------------|
-2---2---2---2---|-2---2---2---2---|
-2---2---2---2---|-2---2---2---2---|
-----------------|-----------------|
-----------------|-----------------|
#----------------------------PLEASE NOTE-----------------------------#
# This represents the author's own work and interpretation of the    #
# song. To be used only for private study, scholarship, or research. #
#--------------------------------------------------------------------#

blog comments powered by Disqus