Elephant Tab

More Page France Tabs

Artist: Page France
 Album: Hello, Dear Wind
  Song: Elephant

Tabbed by: Jeremy Latimer (jeremydavidlatimer [at] gmail)

 G   E   A   F#  D
-3---0---5---2---x---
-3---0---5---2---3---
-4---1---6---3---2---
-5---2---7---4---0---
-5---2---7---4---0---
-3---0---5---2-------



Pattern I Pattern II Pattern III

G E (x4) for verses A F# (x4) A G A G A G A F#
(x2) for interlude

Pattern IV

D A


I
I
Hey Mr. Elephant there's been an accident down here
I
You and your trickery played a trick on me down here
II
Hey, Mr. Elephant it's important that you see
I
That there is a big reward if you cooperate with me

III, I

I
Hey, Mr. Flower Jar there's a curtain call out here
I
You made it look so real we could almost feel you here
II
Hey, Mr. Flower Jar we've all cleared a space for you
I
You've got a heart of gold and your performance souls anew


III, I
III, I
III (without the F#) x2

IV

D
I will give you all of this
A
If you will praise me
If you will praise me
D
Fly into the ground
A
Like an airplane
Like an airplane
D
Fly into the ground

You'll be given all of this
A
If you believe it
If you believe it
D
Fly into the trees
A
And pick the best one
Pick the best one
D
Fly into the ground

III (without the F#)


----------------------------------------------------------------------


Guitar 2

Pattern I Pattern II Pattern III

(x4) (x4) A G A G A G A F#
--------------------- ------------------ --55-33-55-33-55-33-5--2--
---3-------0---0----- ---5-------2---2-- --55-33-55-33-55-33-5--2--
-4---4---1---1------- -6---6---3---3---- --66-44-66-44-66-44-6--3--
--------------------- ------------------ --77-55-77-55-77-55-7--4--
--------------------- ------------------ --77-55-77-55-77-55-7--4--
--------------------- ------------------ --55-33-55-33-55-33-5--2--


Guitar 2: Electric Guitar 3: Heavy distortion

Interlude Pattern I part Pattern III, Interlude: III & I

---------------------------------7--------------------------------
-------------5-7-----------------8---over and over----------------
----4-7----7---------------------7--------------------------------
--7------------------------------9--------------------------------
--------------------------------(10)------------------------------
------------------------------------------------------------------

----------------------------------------------------------------------

Bells
Pattern III
A G A G A G A

(for guitar)

-5-3-5-3-5-3-5--
----------------
----------------
----------------
----------------
----------------

----------------------------------------------------------------------

Trumpet
During Pattern IV near end

(for guitar)

-12-9-----12-9------------
------------------10------
--------------------------
--------------------------
--------------------------
--------------------------

----------------------------------------------------------------------

Bass in drop D
Follow Guitar 1 part and play chord roots until Pattern IV

IV.1
G----------------------------------------
D----------------------------------------
A---------------------------------------- (x4)
D-0-0-0-0-0-0-0-0-7-7-7-7-7-7-7-7--------

IV.2
G----------------------------------------
D----------------------------------------
A----------------------------------------
D-0-0-0-0-0-0-0-0-7-7-9-11-7-7-9-11------

G----------------------------------------
D----------------------------------------
A---------------------------------------- (x6)
D-0-0-0-0-0-0-0-0-7-7-9-11-7-7-9-7-------

III
G----------------------------------------
D----------------------------------------
A----------------------------------------
D-77-55-77-55-77-55-7--------------------

#----------------------------PLEASE NOTE-----------------------------#
# This represents the author's own work and interpretation of the    #
# song. To be used only for private study, scholarship, or research. #
#--------------------------------------------------------------------#

blog comments powered by Disqus