Sing you a Love you Song Tab

More Of Montreal Tabs

Artist: Of Montreal
 Album: The Bedside Drama: A Petite Tragedy
  Song: Sing you a Love you Song

Tabbed by: J. Alexander Genz (Genzplusmalcolmxforever@yahoo.com)

Standard tuning, but tune slightly flat to play along with the album.

e|-----------------------0-------4---4---4---4---5---5---7-7-5---4---4---4---4---2-2-2-2|
B|----0----------0-------0-------5---5---3---3---0---0---7---7---5---5---3---3---0-0-0-0|
g|1---1-------1-------1--1-------4---4---4---4---6---6---5---5---4---4---4---4---3---3--|
d|2---2-----2-------2------------------------------------------------------------4---4--|
a|2---2---0-----------------------------------------------------------------------------|
E|0---------------0---------------------------------------------------------------------|
                       ...the laughter and the tears dissolved into his memory...

e|2-2-2-2-0-0-0-0-0-0-0-0-4---4---4---4-----------2---2---|
B|0-0-0-0-0-0-0-0-0-0-0-0-5---5---3---3---2---2---1---1---|
G|3---3---3---3---3---3---4---4---4---4---1---1---2---2---|
D|4---4---4---4---4---4-------------------2---2---0---0---|
A|--------------------------------------------------------|
E|--------------------------------------------------------|
 ...and as her eyes began to bloom

e|-----------------------0-------4---4---4---4---5---5---7-7-5---4---4---4---4---2-2-2-2-|
B|----0----------0-------0-------5---5---3---3---0---0---7---7---5---5---3---3---0-0-0-0-|
g|1---1-------1-------1--1-------4---4---4---4---6---6---5---5---4---4---4---4---3---3---|
d|2---2-----2-------2------------------------------------------------------------4---4---|
a|2---2---0------------------------------------------------------------------------------|
E|0---------------0----------------------------------------------------------------------|
               ...they walked through the garden...

e|2-2-2-2-0-0-0-0-0-0-0-0---------4---4---0---0---0---0---0---0---7-7-7---|
B|0-0-0-0-0-0-0-0-0-0-0-0-5---5---2---2---2---2---1---1---1---1---7---7---|
G|3---3---3---3---3---3---4---4---3---3---2---2---2---2---2---2---7---7---|
D|4---4---4---4---4---4---6---6-----------2---2---2---2---2---2-----------|
A|------------------------4---4-------------------------------------------|
E|------------------------------------------------------------------------|
            ...although i can't say it now, be still cause someday baby I

e|--------2---2---------------------------2---2---2---2---|
B|5---5---4---4---2---2---5---5---4---4---0---0---0---0---|
G|4---4---2---2---2---2---4---4---5---5---0---0---0---0---|
D|6---6---4---4---3---3---6---6---5---5---1---1---1---1---|
A|4---4-----------4---4---4---4---3---3---2---2---2---2---|
E|----------------------------------------0---0---0---0---|
 will  sing you a love you song           oooh

[Repeat 1x, then:]
                                                           C             E
How could you question when the root of my affection is so plain and obvious?
     Eb            C#                     F#                                                                   
It grew from the overwhelming pleasure of just being near you
  C                  Eb                   E              A4      A5          
and now you bring in doubts and they are smothering our love!

E      A4     A5      E/C#     E     Eb    Ebm   

[end with intro]

[chords:]   

A4:  x02244       A5:  xo2245      E/C#:  046000      Ebm: x6766x

[lyrics:]

Before the laughter and the cheer 
Dissolves into his memory
Taste of vodka on his lips
And thoughts of murder and doom
Her eyes appeared to bloom
He wanted to touch them but was afraid 
She'd be taken aback 
Then what would he say?

They walked to the garden in the park 
When it was empty after dark 
Then spread out a blanket and laid down 
And in a voice that no one else could hear 
He whispered in her ear
"Although I can't sing it now, be still
Someday, baby, I will
Sing you a love you song"

She rolled over and a kiss 
Laid softly on his chin 
And said, "You know maybe there's a chance 
That your feelings you've mistook 
Or have presently overlooked
You say you don't love me
But yet perhaps you just 
Forgot that you do"

He said that, "I love you, please believe 
The only matter of concern 
Is that your love will one day fade
If that should happen I would die
And that's the reason why 
I know I can't sing it now, but be still 
Because someday, baby, I will 
Sing you a love you song"

She said, "How could you question 
When the root of my affection 
Is so plain and obvious? 
It grew from the overwhelming pleasure 
Of just being near you 
And now brings in doubts 
And they are smothering 
Our love!"
#----------------------------PLEASE NOTE-----------------------------#
# This represents the author's own work and interpretation of the    #
# song. To be used only for private study, scholarship, or research. #
#--------------------------------------------------------------------#

blog comments powered by Disqus