#----------------------------PLEASE NOTE-----------------------------#
# This represents the author's own work and interpretation of the    #
# song. To be used only for private study, scholarship, or research. #
#--------------------------------------------------------------------#

Artist: Of Montreal
 Album: Satanic Panic in the Attic
  Song: City Bird (ver 2)

[http://www.indieguitartabs.com/bands/of_montreal/07_city_bird_ver2.html]

Tabbed by: Erik Nilsson

Tune guitar to "Open D"
e --> D
B --> A
G --> F#
D --> D
A --> A
E --> D


|5-------4-------|2-------2-------|
|--0---0---0---0-|--3---3---3---3-|
|----0-------0---|----1-------2---|
|0-------0-------|2-------2-------|
|----------------|----------------|
|----------------|----------------|
 City bird         haven't you heard

etc. [same picking pattern throughout]

the rest of the chords:
|-5-4---4-----5-7---3-----3-----5-4---0-2-0-|
|-0-----4-----3-----5-----4-----0-----0-0-0-|
|-0-----3-----3-----5-----4-----0-----0-0-0-|
|-0-----4-----3-----3-----5-----0-----0-0-0-|
|-0-----0-----0-----0-----0-----0-----0-0-0-|
|-0-----0-----0-----0-----0-----0-----0-0-0-|
                                    (just this part is strummed normal)

|-2-----8-----3-----0-2---4-----3-----3-|
|-2-----7-----3-----2-4---5-----3-----3-|
|-2-----7-----3-----2-3---3-----3-----3-|
|-2-----8-----3-----0-2---0-----3-----3-|
|-0-----0-----0-----0-----0-----0-----0-|
|-0-----0-----0-----0-----0-----0-----0-|
(back to original picking pattern)  


VERSE 1 :
City bird, haven't you heard
Hasn't anybody told you?
These city blocks can't hold you
Your place is in the sky how can I show you?

VERSE 1 :
City bird haven't you learned
of the boundlessness of your freedom
The sky is your blue kingdom
You neglect your wings like you don't need them

CHORUS :
City bird maybe these hands that feed you need you
Maybe you understand that city bird