#----------------------------PLEASE NOTE-----------------------------#
# This represents the author's own work and interpretation of the    #
# song. To be used only for private study, scholarship, or research. #
#--------------------------------------------------------------------#

Artist: No Age
 Album: Nouns
  Song: Eraser

[http://www.indieguitartabs.com/bands/no_age/eraser.html]

Tabbed by: gosk

1.
e|--5-------7-------5---------7------
B|--7-------8-------7---------8------
G|--7-(x8)--9--(x8)-7--(x8)---9--(x8)
D|-----------------------------------
A|-----------------------------------
E|-----------------------------------

2.
e|--5-------7-------9----------7------
B|--7-------8-------10---------8------
G|--7-(x8)--9--(x8)-11--(x8)---9--(x8)
D|------------------------------------
A|------------------------------------
E|------------------------------------

3.
e|--5-------7-------9----------10------
B|--7-------8-------10---------12------
G|--7-(x8)--9--(x8)-11--(x8)---12--(x8)
D|-------------------------------------
A|-------------------------------------
E|-------------------------------------

4.
e|--------------------------------
B|--------------------------------
G|--5------5--------5-------5-----
D|--5------5--------5-------5-----
A|--7-(x8)-7--(x8)--7-(x8)--7-(x8)
E|--------------------------------

5.
e|--2------3-------2--------3--------0-----2---
B|--3------3-------3--------3--------2-----3---
G|--2------4-------2--------4--------2-----2---
D|--0-(x8)-5--(x8)-0--(x8)--5--(x8)--2-----0-x8
A|-----------------------------------0-(x8)----
E|---------------------------------------------

6.
D  A  G

Song basically goes...

Part 1 (x4)
Part 2 (x12)
Part 3 (x1)

Part 4 (x1)
Part 5 (x2)

Part 3 (x1)
Part 6 (x4)

End on D major

It's an eyesore
My head was shaved
It's a pain sometimes I try to walk on by

A witness now in every place
A window broke I wonder what I get paid
Watch him die
A window now in every place
A witness spoke I wonder what I get paid
Watch him die

Wait for the foreman now get paid
Wait and see the list of shit you made
Gotta see my heart's a darker place
Gotta be my soul's the one who pays