#----------------------------PLEASE NOTE-----------------------------#
# This represents the author's own work and interpretation of the    #
# song. To be used only for private study, scholarship, or research. #
#--------------------------------------------------------------------#

Artist: Neutral Milk Hotel
 Album: In The Aeroplane Over The Sea
  Song: Communist Daughter

[http://www.indieguitartabs.com/bands/neutral_milk_hotel/07_communist_daughter.html]

Tabbed by: justin@indieguitartabs.com

G
Sweet communist, the communist daughter
D
Standing on the sea-weed water
C
Semen stains the mountain tops (x2)

(G  D  C  C)
With cocoa leaves along the border
Sweetness sings from every corner 
Cars careening from the clouds
The bridges burst and twist around

(G  D  C  C)
And wanting something warm and moving
Bends towards herself the soothing 
Proves that she must still exist
She moves herself about her fist

[solo] (trumpet for guitar)
e|-----------------------
B|-----------------------
G|---4-7-5-4-5-7-5-4-----
D|-5-----------------7---
A|-----------------------
E|-----------------------

e|-----------------------
B|-----------------------
G|---4-5-4---4-5-4-------
D|-7-------7-------7-5---
A|-----------------------
E|-----------------------

e|-----------------------
B|-----------------------
G|-----5-4---4-5-4-------
D|-5-7-----7-------7-5---
A|-----------------------
E|-----------------------

e|-----------------------
B|-----------------------
G|-----5-4---4-5-4-5-7---
D|-5-7-----7-------------
A|-----------------------
E|-----------------------