That Teenage Feeling (ver 3) Tab

More Neko Case Tabs

Artist: Neko Case
 Album: Fox Confessor Brings The Flood
  Song: That Teenage Feeling (ver 3)

Tabbed by: mojicabrian@hotmail.com

Tabbed by bmoj (mojicabrian@hotmail.com)

Bm#5:      x20010
CmMb11:    x31200
Cadd4:     x33010
A9sus4:    x00001
G/B:       x20001
FM#11:     133200
FM#13:     133230
Bm#5add11: x20000
C6:        x3x210

Intro:
C  C6
C  C6
C  Bm#5 Am

The C-Bm#5-Am should be played somewhat like this:
 C                    Bm#5  Am
-3-0h3p0----3-0h3p0-----0---0-----------------------
-1------1---1-------1-3---3-1-----------------------
-0----------0---------0-----2-----------------------
-2--------------------0-----2-----------------------
-3--------------------2-----0-----------------------
----------------------------------------------------


C              CmMb11
Now that we've met
C                            CmMb11
We can only laugh at these regrets
C          Cadd4
Common as a winter cold
        C                  Fm
They're telephone poles
     C   Bm#5            Am
They fol-low each       other
C           Fm             G       A9sus4 G/B
One, after another, after another
    C               Fm
But now my heart is green as weeds
C           Fm         C      Fm   G A9sus4 G/B
Grown to outlive their season

    C       Bm#5        Am
And nothing comforts me the same
      C
As my brave friend who says,
 Am              F
"I don't care if forever never comes
           C                    G       F        FM#11 FM#13
'Cause I'm holding out for that teenage feeling 
    C                    Bm#5       F
I'm holding out for that teenage feeling"

Dm

        Am
All the laughs we had
       F         FM#11 F
All we ever knew
         C
Did they fill me with so many secrets
             F
Keep me from loving you
            G     Bm#5add11(see * below)  C
'Cause it's hard
G     Bm#5add11  
Hard  hard        
C      G   Bm#5add11  
Hard
C      G   Bm#5add11  G   Bm#5add11  
Hard

C   C6
C   C6
C  Bm#5 Am

* Moving from G to Bm#5add11 in this last part is played like this:
 G                     Bm#5add11
-3-------------------------------------------------------
-0-------------------------------------------------------
-0-(strum chord)---------(strum chord)-------------------
-0-------------------------------------------------------
-2-----------------0h1h2---------------------------------
-3-------------------------------------------------------

#----------------------------PLEASE NOTE-----------------------------#
# This represents the author's own work and interpretation of the    #
# song. To be used only for private study, scholarship, or research. #
#--------------------------------------------------------------------#

blog comments powered by Disqus