That Teenage Feeling Tab

More Neko Case Tabs

Artist: Neko Case
 Album: Fox Confessor Brings The Flood
  Song: That Teenage Feeling

Tabbed by: justin@indieguitartabs.com

Capo 5

Intro:

e|--3-----3-----2-----0--------
B|----0-----0-----0-----0------
G|------0-----0-----0-----0----
D|----------------------------- x2
A|-----------------------------
E|-----------------------------

e|--3-----3------------0--------
B|----0-----0----3-------0------
G|------0-----0----0-------0----
D|-------------------0---------- x2
A|------------------------------
E|------------------------------



G              Gm
Now that we've met
G                            Gm
We can only laugh at these regrets
Em          C
Common as a winter cold
        G                  C
They're telephone poles
     G           C
They follow each other
G           C              G       C
One, after another, after another
    Em              C
But now my heart is green as weeds
G           C          G      C   G  C
Grown to outlive their season

    G       D        Em
And nothing comforts me the same
      G
As my brave friend who says,
 Em              C
"I don't care if forever never comes
           G                    D       C
'Cause I'm holding out for that teenage feeling
    G                    D       C
I'm holding out for that teenage feeling"

Am

        Em
All the laughs we had
       C
All we ever knew
         G
Did they fill me with so many secrets
             C
Keep me from loving you
            G     C
'Cause it's hard, hard


#----------------------------PLEASE NOTE-----------------------------#
# This represents the author's own work and interpretation of the    #
# song. To be used only for private study, scholarship, or research. #
#--------------------------------------------------------------------#

blog comments powered by Disqus