#----------------------------PLEASE NOTE-----------------------------#
# This represents the author's own work and interpretation of the    #
# song. To be used only for private study, scholarship, or research. #
#--------------------------------------------------------------------#

Artist: The National
 Album: Boxer
  Song: Racing Like A Pro (ver 2)

[http://www.indieguitartabs.com/bands/national/racing_like_a_pro_ver_2.html]

Tabbed by: Josh DeFonzo

Okay, the other tab on this site is a good start,
but there are some issues with the timing.  

Further the song is played live at the following
positions on the guitar.

Intro/Verses/Outro
e-----------------------------------------------------------------
B-----------------------------------------------------------------
G-----10------10------10------10------10------10------10------10--
D-----------------------------------------------------------------
A--8------8-------8-------8-------8-------8-------8-------8-------
E---10------10------8-------8-------6-------6-------6-------6-----


Chorus
e---------------------------------------------------------
B---------------------------------------------------------
G-----7------7------7------7------3------3------3------3--
D---------------------------------------------------------
A--8------8------8------8------5------5------5------5-----
E----6------6------5------5------3------3------3------3--- x3

e---------------------------------------------------------
B---------------------------------------------------------
G-----7------7------7------7------6------6------6------6--
D---------------------------------------------------5-----
A--8------8------8------8------7------7------7--------5---
E----6------6------5------5------5------5------5---------- x1


Song Structure

Intro x1

Verse x5

Chorus x1

Verse x5

Chorus x1

Verse x8
"You're dumbstruck baby . . ."

Chorus x1

Verse x5
"You're dumbstruck baby . . ."

Outro x2 (strings and horns only)