#----------------------------PLEASE NOTE-----------------------------#
# This represents the author's own work and interpretation of the    #
# song. To be used only for private study, scholarship, or research. #
#--------------------------------------------------------------------#

Artist: The National
 Album: Cherry Tree
  Song: About Today

[http://www.indieguitartabs.com/bands/national/about_today.html]

Tabbed by: Samantha

Hey, this tab represents how it is played for both the album and 
the live version but you can add in a note here and there and 
play around with it.  It is not a difficult tab, and if you 
should have any trouble I suggest using the chords as a reference 
point for the fingerings.  Enjoy guys!


Verse Riff
         F           Am
3--------1-----------0---------------------
------1---------1-----------1---1------1---
--2----------2-----------2----------2------
3--------3-----------2---------------------
--------------------------------0----------
-------------------------------------------
                    G
0------------------------------------------
------1---1-----1---0------0---0-------0---
---2----------2--------0-----------0-------
2------------------------------------------
----------0--------------------------------
--------------------3----------3-----------

Chorus
C
-----------0--------------------0------------
1------1----------1--1------1---------1------
----0----------0---------0----------0--------
---------------------------------------------
3----------3---------3----------3------------
---------------------------------------------


Em
0-----------------0--------------------------
-----0---0-----0------0---0----0-------------
--0---------0-------0--------0---------------
---------------------------------------------
2--------2--------2-------2------------------
---------------------------------------------

F
1----------3---------1----------0----------------------
--------1---------1----------1----------1---0------0---
----2----------2---------2----------2-----------0------
3----------3---------3----------3----------------------
-------------------------------------------------------
--------------------------------------------3----------

          G
3---------1----------0--------
----0----------0---------0----
--0----------0---------0------
------------------------------
------------------------------
3---------3----------3--------

Then play around with the G chord to end it.  :-)