#----------------------------PLEASE NOTE-----------------------------#
# This represents the author's own work and interpretation of the    #
# song. To be used only for private study, scholarship, or research. #
#--------------------------------------------------------------------#

Artist: The National
 Album: Alligator
  Song: Mr. November

[http://www.indieguitartabs.com/bands/national/13_mr_november.html]

Tabbed by: Eric Bonkowski (Fixxxer411 yahoo com)


this song basically just revolves around the D and G chords

intro:
   D       D      G       G
|-----------------------------------------------------------|
|--3-------3------3-------3---------------------------------|
|--2-------2------0-------0---------------------------------|
|--0-------0------0-------0---------------------------------|
|--x-------x------x-------x---------------------------------|
|--2-------2------3-------3---------------------------------|

verse:

    This is nothing like it was in my room 
    In my best clothes 
    Trying to think of you 
    This is nothing like it was in my room 
    In my best clothes 

|----2-2-2-2----3-3-3-3---2-2-2-2----0-0-0-0---------------|
|--3----------3---------3----------3-----------------------|
|----------------------------------------------------------|
|----------------------------------------------------------|
|----------------------------------------------------------|
|----------------------------------------------------------|

Between verses:

   D            A           D           A
|--------14-14-------12-12--------14-14------12-12---------|
|-----10----------10-----------10---------10---------------|
|--11-----------9-----------11----------9------------------|
|----------------------------------------------------------|
|----------------------------------------------------------|
|----------------------------------------------------------|

chorus:

    D                        G                             
|---14-14-14-14-14-14-14-14--15-15-15-15-15-15-15-15------------------------|
|---15-15-15-15-15-15-15-15--15-15-15-15-15-15-15-15------------------------|
|---14-14-14-14-14-14-14-14---0--0--0--0--0--0--0--0------------------------|
|----0--0--0--0--0--0--0--0---0--0--0--0--0--0--0--0------------------------|
|---------------------------------------------------------------------------|
|---------------------------------------------------------------------------|


    D                        Dsus2                            
|---14-14-14-14-14-14-14-14--12-12-12-12-12-12-12-12------------------------|
|---15-15-15-15-15-15-15-15--15-15-15-15-15-15-15-15------------------------|
|---14-14-14-14-14-14-14-14--14-14-14-14-14-14-14-14------------------------|
|----0--0--0--0--0--0--0--0---0--0--0--0--0--0--0--0------------------------|
|---------------------------------------------------------------------------|
|---------------------------------------------------------------------------|