Guest Room Tab

More The National Tabs

Artist: The National
 Album: Boxer
  Song: Guest Room

Tabbed by: Rogs

   Bm     D     A     G    Em9    B
e|--2--|--3--|--0--|--2--|--2--|--2--|
B|--3--|--2--|--2--|--0--|--3--|--4--|
G|--4--|--3--|--2--|--0--|--0--|--4--|
D|--4--|--0--|--2--|--0--|--2--|--4--|
A|--2--|--x--|--0--|--2--|--2--|--2--|
E|--2--|--x--|--0--|--3--|--0--|--x--|

[Verse 1]
Bm              D                      A
They're gonna send us to prison for jerks
Bm                    D                   A                  
For having vague ideas of the way to turn each other on again
Bm              D                      A
They're gonna send us to prison for jerks

[Chorus 1]
                  D                     Bm        
They'll find us here here here in the guest room
                  G                     Em9       
Where we throw money at each other and cry, oh my

[Verse 2]
Bm              D       A                    
We miss being ruffians, going wild and bright
Bm                      D    
In the corners of front yards
        A                  
Getting in and out of cars
Bm            D         A
We miss being deviants

[Chorus 2]
                  D                     Bm        
They'll find us here here here in the guest room
                  G                     Em9       
Where we throw money at each other and cry, oh my
           D               Bm                      
We can't stay here, We're starting to stay the same
           G                 Em9                  
We can't stay here, We can't stay this way


[Interlude]
    A    A    E    B    
    A    A    E    B    

e|-----------------------------------------------------------------4-4-4-2-2-2-|
B|-------------------------------------------------4-4-4-4-4-4-4-4-------------|
G|-2-2-2-2-2-2-2-2-2-2-2-2-2-2-2-2-2-1-1-1-1-1-1-1-----------------------------|
D|-----------------------------------------------------------------------------|
A|-----------------------------------------------------------------------------|
E|-----------------------------------------------------------------------------|

[Bridge]
      E                          
Just tie your woman to your wrist,
C#m
give her room to tie the other
A
Ohhhhhhhhh, oh oh oh
                E
They’ll find us here here here in the
C#m
guest room where we throw
A
money at each other and cry, oh my
#----------------------------PLEASE NOTE-----------------------------#
# This represents the author's own work and interpretation of the    #
# song. To be used only for private study, scholarship, or research. #
#--------------------------------------------------------------------#

blog comments powered by Disqus